Primordial - Cast To The Pyre tab

                           Cast to the Pyre
                              Primordial



|Guitar 1:|---4--------------------|-4----------------------|---4--------------------||-5---4------------------|---4--------------------|-5---4------------------||-------5----------------|-----4------------------|-------5----------------||----------------------6-|-------6----------------|----------------------6-||------------------------|------------------------|------------------------||------------------------|------------------------|------------------------|
|
|Guitar 2:|------------------------|------------------------|------------------------||------------------------|------------------------|------------------------||------------------------|------------------------|------------------------||-6-----6-----6-----6----|-6-----6-----6-----6----|-6-----6-----6-----6----||-6-----6-----6-----6----|-6-----6-----6-----6----|-6-----6-----6-----6----||-4---0-4---0-4---0-4---0|-4---0-4---0-4---0-4---0|-4---0-4---0-4---0-4---0|
|-4----------------------|---4------------------|-4------------------------||---4--------------------|-5---4----------------|---4----------------------||-----4------------------|-------5--------------|-----4--------------------||-------6----------------|--------------------6-|-------6b(7)r6------------||------------------------|----------------------|--------------------------||------------------------|----------------------|--------------------------|
| |
|------------------------|------------------------|------------------------||------------------------|------------------------|------------------------||------------------------|------------------------|------------------------||-6-----6-----6-----6----|-6-----6-----6-----6----|-6-----6-----6-----6----||-6-----6-----6-----6----|-6-----6-----6-----6----|-6-----6-----6-----6----||-4---0-4---0-4---0-4---0|-4---0-4---0-4---0-4---0|-4---0-4---0-4---0-4---0|
|-------0----------------|-------0----------------|-4----------------------||-----6------------------|-----6------------------|---4--------------------||---5--------------------|---5--------------------|-----4------------------||-7----------------------|-7--------------------6-|-------6--------------6-||------------------------|------------------------|------------------------||------------------------|------------------------|------------------------|
| |
|------------------------|------------------------|------------------------||------------------------|------------------------|------------------------||------------------------|------------------------|------------------------||-7-----7-----7-----7----|-7-----7-----7-----7----|-6-----6-----6-----6----||-7-----7-----7-----7----|-7-----7-----7-----7----|-6-----6-----6-----6----||-5---0-5---0-5---0-5---0|-5---0-5---0-5---0-5---0|-4---0-4---0-4---0-4---0|
|-4----------------------|-------0----------------|-------0----------------||---4--------------------|-----6------------------|-----6------------------||-----4------------------|---5--------------------|---5--------------------||-------6----------------|-7----------------------|-7--------------------6-||------------------------|------------------------|------------------------||------------------------|------------------------|------------------------|
| |
|------------------------|------------------------|------------------------||------------------------|------------------------|------------------------||------------------------|------------------------|------------------------||-6-----6-----6-----6----|-7-----7-----7-----7----|-7-----7-----7-----7----||-6-----6-----6-----6----|-7-----7-----7-----7----|-7-----7-----7-----7----||-4---0-4---0-4---0-4---0|-5---0-5---0-5---0-5---0|-5---0-5---0-5---0-5---0|
|-4----------------------|-4----------------------||---4--------------------|---4--------------------||-----4------------------|-----4------------------| |-------6--------------6-|-------6----------------| |------------------------|------------------------||------------------------|------------------------|
| |
|------------------------|------------------------||------------------------|------------------------||------------------------|------------------------| x2 from beginning|-6-----6-----6-----6----|-6-----6-----6-----6----||-6-----6-----6-----6----|-6-----6-----6-----6----||-4---0-4---0-4---0-4---0|-4---0-4---0-4---0-4---0|
|------------------------|------------------------| _|------------------------|------------------------| ||------------------------|-5-5-5-5-5-5-5-5-5-5-5-5| ||-------------------7-7-7|-5-5-5-5-5-5-5-5-5-5-5-5| ||-7-----7-----7-----7-7-5|-3-3-3-3-3-3-3-3-3-3-3-3| ||-5-5-5-5-5-5-5-5-5------|-3-3-3-3-3-3-3-3-3-3-3-3| |
| || ||------------------------|------------------------| ||------------------------|------------------------| ||------------------------|-5-5-5-5-5-5-5-5-5-5-5-5| ||------------------------|-5-5-5-5-5-5-5-5-5-5-5-5| ||-7-7-7-7-7-7-7-7-7-7-7-7|-3-3-3-3-3-3-3-3-3-3-3-3| ||-5-5-5-5-5-5-5-5-5-5-5-5|-3-3-3-3-3-3-3-3-3-3-3-3 |
|
|------------------------|------------------------| |--> x4|------------------------|------------------------| | |-9-9-9-9-9-9-9-9-9-9-8-8|-5-5-5-5-5-5-5-5-5-5-5-5| ||------------------------|------------------------| ||-7-7-7-7-7-7-7-7-7-7-6-6|-3-3-3-3-3-3-3-3-3-3-3-3| ||------------------------|------------------------| |
| || ||------------------------|------------------------| ||------------------------|------------------------| | |------------------------|------------------------| ||-------6-----------6----|-------6-----------6----| ||-------3-----------3----|-------3-----------3----| ||-4-4-4-4-4-4-4-4-4-4-4-4|-4-4-4-4-4-4-4-4-4-4-4-4| -
|----------------------------||----------------------------||----------------------------||----------------------------||----------------------------||-5~~~~~~~~~-----------------|
| |
|----------------------------||----------------------------||----------------------------||----------------------------||----------------------------||-5~~~~~~~~~-----------------|
|
|---4--------------------|-4----------------------|---4--------------------||-5---4------------------|---4--------------------|-5---4------------------||-------5----------------|-----4------------------|-------5----------------||----------------------6-|-------6----------------|----------------------6-||------------------------|------------------------|------------------------||------------------------|------------------------|------------------------|
| |
|------------------------|------------------------|------------------------||------------------------|------------------------|------------------------||------------------------|------------------------|------------------------||-6-----6-----6-----6----|-6-----6-----6-----6----|-6-----6-----6-----6----||-6-----6-----6-----6----|-6-----6-----6-----6----|-6-----6-----6-----6----||-4---0-4---0-4---0-4---0|-4---0-4---0-4---0-4---0|-4---0-4---0-4---0-4---0|
|-4----------------------|---4------------------|-4------------------------||---4--------------------|-5---4----------------|---4----------------------||-----4------------------|-------5--------------|-----4--------------------||-------6----------------|--------------------6-|-------6b(7)r6------------||------------------------|----------------------|--------------------------||------------------------|----------------------|--------------------------|
| |
|------------------------|------------------------|------------------------||------------------------|------------------------|------------------------||------------------------|------------------------|------------------------||-6-----6-----6-----6----|-6-----6-----6-----6----|-6-----6-----6-----6----||-6-----6-----6-----6----|-6-----6-----6-----6----|-6-----6-----6-----6----||-4---0-4---0-4---0-4---0|-4---0-4---0-4---0-4---0|-4---0-4---0-4---0-4---0|
|-------0----------------|-------0----------------|-4----------------------||-----6------------------|-----6------------------|---4--------------------||---5--------------------|---5--------------------|-----4------------------||-7----------------------|-7--------------------6-|-------6--------------6-||------------------------|------------------------|------------------------||------------------------|------------------------|------------------------|
| |
|------------------------|------------------------|------------------------||------------------------|------------------------|------------------------||------------------------|------------------------|------------------------||-7-----7-----7-----7----|-7-----7-----7-----7----|-6-----6-----6-----6----||-7-----7-----7-----7----|-7-----7-----7-----7----|-6-----6-----6-----6----||-5---0-5---0-5---0-5---0|-5---0-5---0-5---0-5---0|-4---0-4---0-4---0-4---0|
|-4----------------------|-------0----------------|-------0----------------||---4--------------------|-----6------------------|-----6------------------||-----4------------------|---5--------------------|---5--------------------||-------6----------------|-7----------------------|-7--------------------6-||------------------------|------------------------|------------------------||------------------------|------------------------|------------------------|
| |
|------------------------|------------------------|------------------------||------------------------|------------------------|------------------------||------------------------|------------------------|------------------------||-6-----6-----6-----6----|-7-----7-----7-----7----|-7-----7-----7-----7----||-6-----6-----6-----6----|-7-----7-----7-----7----|-7-----7-----7-----7----||-4---0-4---0-4---0-4---0|-5---0-5---0-5---0-5---0|-5---0-5---0-5---0-5---0|
|-4----------------------|-4----------------------||---4--------------------|---4--------------------||-----4------------------|-----4------------------| |-------6--------------6-|-------6----------------| |------------------------|------------------------||------------------------|------------------------|
| |
|------------------------|------------------------||------------------------|------------------------||------------------------|------------------------| x2 |-6-----6-----6-----6----|-6-----6-----6-----6----||-6-----6-----6-----6----|-6-----6-----6-----6----||-4---0-4---0-4---0-4---0|-4---0-4---0-4---0-4---0|
|------------------------|------------------------| _|------------------------|------------------------| ||------------------------|-5-5-5-5-5-5-5-5-5-5-5-5| ||-------------------7-7-7|-5-5-5-5-5-5-5-5-5-5-5-5| ||-7-----7-----7-----7-7-5|-3-3-3-3-3-3-3-3-3-3-3-3| ||-5-5-5-5-5-5-5-5-5------|-3-3-3-3-3-3-3-3-3-3-3-3| |
| || ||------------------------|------------------------| ||------------------------|------------------------| ||------------------------|-5-5-5-5-5-5-5-5-5-5-5-5| ||------------------------|-5-5-5-5-5-5-5-5-5-5-5-5| ||-7-7-7-7-7-7-7-7-7-7-7-7|-3-3-3-3-3-3-3-3-3-3-3-3| ||-5-5-5-5-5-5-5-5-5-5-5-5|-3-3-3-3-3-3-3-3-3-3-3-3| |
|
|------------------------|------------------------| |--> x2|------------------------|------------------------| | |-9-9-9-9-9-9-9-9-9-9-8-8|-5-5-5-5-5-5-5-5-5-5-5-5| ||------------------------|------------------------| ||-7-7-7-7-7-7-7-7-7-7-6-6|-3-3-3-3-3-3-3-3-3-3-3-3| ||------------------------|------------------------| |
| || ||------------------------|------------------------| ||------------------------|------------------------| | |------------------------|------------------------| ||-------6-----------6----|-------6-----------6----| ||-------3-----------3----|-------3-----------3----| ||-4-4-4-4-4-4-4-4-4-4-4-4|-4-4-4-4-4-4-4-4-4-4-4-4| -
|------------------------|------------------------||------------------------|------------------------||------------------------|-------------9-9-9-9-9-9| |-9----10----12----10----|-9----10----------------| |------------------------|-------------7-7-7-7-7-7| |-7----8-----10-----8----|-7-----8----------------|
| |
|------------------------|------------------------| |------------------------|------------------------| |------------------------|-5-5-5-5-5-5-5-5-5-5-5-5| |------------------------|-5-5-5-5-5-5-5-5-5-5-5-5| |-7-7-7-7-7-7-7-7-7-7-7-7|-3-3-3-3-3-3-3-3-3-3-3-3| |-5-5-5-5-5-5-5-5-5-5-5-5|-3-3-3-3-3-3-3-3-3-3-3-3|
|------------------------|------------------------||------------------------|------------------------| |-9-9-9-9-9-9-9-9-9-9-8-8|-5-5-5-5-5-5-5-5-5-5-5-5| |------------------------|------------------------| |-7-7-7-7-7-7-7-7-7-7-6-6|-3-3-3-3-3-3-3-3-3-3-3-3||------------------------|------------------------|
| |
|------------------------|------------------------| |------------------------|------------------------| |------------------------|------------------------| |-------6-----------6----|-------6-----------6----| |-------3-----------3----|-------3-----------3----| |-4-4-4-4-4-4-4-4-4-4-4-4|-4-4-4-4-4-4-4-4-4-4-4-4|
|------------------------|------------------------||------------------------|------------------------||------------------------|-------9------7---------| |-9----10----12----10----|-9-------------------9--| |------------------------|-------7------5---------| |-7----8-----10-----8----|-7-------------------7--|
| |
|------------------------|------------------------| |------------------------|------------------------| |------------------------|-5-5-5-5-5-5-5-5-5-5-5-5| |------------------------|-5-5-5-5-5-5-5-5-5-5-5-5| |-7-7-7-7-7-7-7-7-7-7-7-7|-3-3-3-3-3-3-3-3-3-3-3-3| |-5-5-5-5-5-5-5-5-5-5-5-5|-3-3-3-3-3-3-3-3-3-3-3-3|
|------------------------|------------------------||------------------------|------------------------| |-9-9-9-9-9-9-9-9-9-9-8-8|-5-5-5-5-5-5-5-5-5-5-5-5| |------------------------|------------------------| |-7-7-7-7-7-7-7-7-7-7-6-6|-3-3-3-3-3-3-3-3-3-3-3-3||------------------------|------------------------|
| |
|------------------------|------------------------| |------------------------|------------------------| |------------------------|------------------------| |-------6-----------6----|-------6-----------6----| |-------3-----------3----|-------3-----------3----| |-4-4-4-4-4-4-4-4-4-4-4-4|-4-4-4-4-4-4-4-4-4-4-4-4|
|------------------------|------------------------||------------------------|------------------------| |-9-9-9-9-9-9-9-9-8-8s9-6|-5-5-5-5-5-5-5-5-5-5-5-5| |------------------------|------------------------| |-7-7-7-7-7-7-7-7-6-6s7-4|-3-3-3-3-3-3-3-3-3-3-3-3||------------------------|------------------------|
| |
|------------------------|------------------------| |------------------------|------------------------| |------------------------|------------------------| |-------6-----------6----|-------6-----------6----| |-------3-----------3----|-------3-----------3----| |-4-4-4-4-4-4-4-4-4-4-4-4|-4-4-4-4-4-4-4-4-4-4-4-4|
|-------------------------------------|------------------------||-------------------------------------|------------------------| |13-13-13-13-13-13-13-13-13-13-12s13-9|-8-8-8-8-8-8-8-8-8-8-8-8||-------------------------------------|------------------------| |11-11-11-11-11-11-11-11-11-11-10s11-7|-6-6-6-6-6-6-6-6-6-6-6-6||-------------------------------------|------------------------|
| |
|------------------------|------------------------| |------------------------|------------------------| |------------------------|------------------------| |-------6-----------6----|-------6-----------6----| |-------3-----------3----|-------3-----------3----| |-4-4-4-4-4-4-4-4-4-4-4-4|-4-4-4-4-4-4-4-4-4-4-4-4|
|-------------------------------------|------------------------||-------------------------------------|------------------------| |13-13-13-13-13-13-13-13-13-13-12s13-9|-8-8-8-8-8-8-8-8-8-8-8-8||-------------------------------------|------------------------| |11-11-11-11-11-11-11-11-11-11-10s11-7|-6-6-6-6-6-6-6-6-6-6-6-6||-------------------------------------|------------------------|
| |
|------------------------|------------------------| |------------------------|------------------------| |------------------------|------------------------| |-------6-----------6----|-------6-----------6----| |-------3-----------3----|-------3-----------3----| |-4-4-4-4-4-4-4-4-4-4-4-4|-4-4-4-4-4-4-4-4-4-4-4-4|
|--------------------------------------|------------------------||--------------------------------------|------------------------||--------------------------------------|------------------------||10-10-10-10-10-10-10-10-10-10-9h10p9-6|-9-9-9-9-9-9-9-9-9-9-9-9||--------------------------------------|------------------------||--------------------------------------|------------------------|
| |
|------------------------|------------------------| |------------------------|------------------------| |------------------------|------------------------| |-------6-----------6----|-------6-----------6----| |-------3-----------3----|-------3-----------3----| |-4-4-4-4-4-4-4-4-4-4-4-4|-4-4-4-4-4-4-4-4-4-4-4-4|
|------------------------|------------------------||------------------------|------------------------||------------------------|------------------------||-6-6-6-6-6-6-6-6-6-6-6-6|-6-6-6-6-6-6-6-6-6-6-6-6||------------------------|------------------------||------------------------|------------------------|
| |
|------------------------|------------------------| |------------------------|------------------------| |-4-4-4-4-4-4-4-4-4-4-4-4|-4-4-4-4-4-4-4-4-4------| |-6-6-6-6-6-6-6-6-6-6-6-6|-6-6-6-6-6-6-6-6-6-4-4-4| |-6-6-6-6-6-6-6-6-6-6-6-6|-6-6-6-6-6-6-6-6-6-4-4-4| |-4-4-4-4-4-4-4-4-4-4-4-4|-4-4-4-4-4-4-4-4-4-2-2-2|
|------------------------|------------------------||------------------------|------------------------||------------------------|------------------4-----||------------------------|-------6----------------||------------------------|------------------------||------------------------|------------------------|
| |
|------------------------|------------------------||------------------------|------------------------||-4-4-4-4-4-4-4-4-4-4-4-4|-4-4-4-4-4-4-4-4-4-4-4-4||-2-2-2-2-2-2-2-2-2-2-2-2|-2-2-2-2-2-2-2-2-2-2-2-2||-2-2-2-2-2-2-2-2-2-2-2-2|-2-2-2-2-2-2-2-2-2-2-2-2||-0-0-0-0-0-0-0-0-0-0-0-0|-0-0-0-0-0-0-0-0-0-0-0-0|
|------------------------|------------------------||-4----5-4---------------|------------------------||------------------------|------------------------||------------------------|------------------------||------------------------|------2-----------------||------------------------|------------4-----------|
| |
|------------------------|------------------------| |------------------------|------------------------| |-4-4-4-4-4-4-4-4-4-4-4-4|-4-4-4-4-4-4-4-4-4------| |-6-6-6-6-6-6-6-6-6-6-6-6|-6-6-6-6-6-6-6-6-6-4-4-4| |-6-6-6-6-6-6-6-6-6-6-6-6|-6-6-6-6-6-6-6-6-6-4-4-4| |-4-4-4-4-4-4-4-4-4-4-4-4|-4-4-4-4-4-4-4-4-4-2-2-2|
|------------------------|------------------------||------------------------|------------------------||------------------------|-------------9-9-9-9s8-8||------------------------|------------------------||---------------------4h6|-7-7-7-7-7-7-7-7-7-7s6-6||------------------------|------------------------|
| |
|------------------------|------------------------||-5-5-5-5-5-5-5-5-5-5-5-5|-5-5-5-5-5-5-5-5-5-5-5-5||-4-4-4-4-4-4-4-4-4-4-4-4|-4-4-4-4-4-4-4-4-4-4-4-4||-2-2-2-2-2-2-2-2-2-2-2-2|-2-2-2-2-2-2-2-2-2-2-2-2||-2-2-2-2-2-2-2-2-2-2-2-2|-2-2-2-2-2-2-2-2-2-2-2-2||-0-0-0-0-0-0-0-0-0-0-0-0|-0-0-0-0-0-0-0-0-0-0-0-0|
|------------------------|------------------------||------------------------|------------------------||-8----------------------|------------------------||------------------------|------------------------||-6----------------------|------------------------||------------------------|------------------------|
| |
|------------------------|------------------------| |------------------------|------------------------| |-4-4-4-4-4-4-4-4-4-4-4-4|-4-4-4-4-4-4-4-4-4------| |-6-6-6-6-6-6-6-6-6-6-6-6|-6-6-6-6-6-6-6-6-6-4-4-4| |-6-6-6-6-6-6-6-6-6-6-6-6|-6-6-6-6-6-6-6-6-6-4-4-4| |-4-4-4-4-4-4-4-4-4-4-4-4|-4-4-4-4-4-4-4-4-4-2-2-2|
|------------------------|------------------------||-------------------5----|------------------------||-------------4----------|------------------------||-6----------------------|------------------------||------------------------|-------------------7----||------------------------|-4-----------7----------|
| |
|------------------------|------------------------||-5-5-5-5-5-5-5-5-5-5-5-5|-5-5-5-5-5-5-5-5-5-5-5-5||-4-4-4-4-4-4-4-4-4-4-4-4|-4-4-4-4-4-4-4-4-4-4-4-4||-2-2-2-2-2-2-2-2-2-2-2-2|-2-2-2-2-2-2-2-2-2-2-2-2||-2-2-2-2-2-2-2-2-2-2-2-2|-2-2-2-2-2-2-2-2-2-2-2-2||-0-0-0-0-0-0-0-0-0-0-0-0|-0-0-0-0-0-0-0-0-0-0-0-0|
|--------------------------------|--------------------------------||--------------------------------|--------------------------------||--------------------------------|--------------------------------||--------------------------------|--------------------------------||-4s6-6-6-4s6-6-6-4s6-6-6-4s6-6-6|-4s6-6-6-4s6-6-6-4s6-6-6-4s6-6-6||-2s4-4-4-2s4-4-4-2-4-4-4-2s4-4-4|-2s4-4-4-2s4-4-4-2s4-4-4-2s4-4-4|
| |
|------------------------|------------------------| |------------------------|------------------------| |-4-4-4-4-4-4-4-4-4-4-4-4|-4-4-4-4-4-4-4-4-4------| |-6-6-6-6-6-6-6-6-6-6-6-6|-6-6-6-6-6-6-6-6-6-4-4-4| |-6-6-6-6-6-6-6-6-6-6-6-6|-6-6-6-6-6-6-6-6-6-4-4-4| |-4-4-4-4-4-4-4-4-4-4-4-4|-4-4-4-4-4-4-4-4-4-2-2-2|
|-------------------------|-------------------------||-------------------------|-------------------------||-11-----9-----8----9-----|-8-----------------------||-------------------------|-------11-----9-----7----||-9------7-----6----7-----|-6-----------------------||-------------------------|-------9------7-----5----|
| |
|------------------------|------------------------||------------------------|------------------------||-4-4-4-4-4-4-4-4-4-4-4-4|-4-4-4-4-4-4-4-4-4-4-4-4||-2-2-2-2-2-2-2-2-2-2-2-2|-2-2-2-2-2-2-2-2-2-2-2-2||-2-2-2-2-2-2-2-2-2-2-2-2|-2-2-2-2-2-2-2-2-2-2-2-2||-0-0-0-0-0-0-0-0-0-0-0-0|-0-0-0-0-0-0-0-0-0-0-0-0|
|------------------------|------------------------||------------------------|------------------------||------------------------|------------------------||------------------------|------------------------||------------------------|------------------------||------------------------|------------------------|
| |
|------------------------|------------------------| |------------------------|------------------------| |-4-4-4-4-4-4-4-4-4-4-4-4|-4-4-4-4-4-4-4-4-4------| |-6-6-6-6-6-6-6-6-6-6-6-6|-6-6-6-6-6-6-6-6-6-4-4-4| |-6-6-6-6-6-6-6-6-6-6-6-6|-6-6-6-6-6-6-6-6-6-4-4-4| |-4-4-4-4-4-4-4-4-4-4-4-4|-4-4-4-4-4-4-4-4-4-2-2-2|
by decapitator94
Tap to rate this tab
 
# A B C D E F G H I J K L M N O P Q R S T U V W X Y Z