Project 86 - My Will Be A Dead Man tab

Artist:Project 86
Song: My WIll Be A Dead Man
Album:...And The Rest Will Follow

Tabbed by: Daniel Sonksen

|-------------------||-------------------||-------------------||--3-3--3-3-5-5-0-0-||--3-3--3-3-5-5-0-0-||--3-3--3-3-5-5-0-0-|x5
then...
|----------------------||----------------------||----------------------||--10--0--10-0-5--8-10-||--8---0--8--0-3--6-8--||------0-----0---------|
--------------------------------------|--------------------------------------|------7-----------------7-------------|------------------------------6-5-3---|------5-----------------5-----6-5-3---|--0-0---0--0-0-6p0--0-0---0-0---5-3---|x2
then...
|-------------------||-------------------||-------------------||--3-3--3-3-5-5-0-0-||--3-3--3-3-5-5-0-0-||--3-3--3-3-5-5-0-0-|x3
then...
|----------------------||----------------------||----------------------||--10--0--10-0-5--8-10-||--8---0--8--0-3--6-8--||------0-----0---------|
--------------------------------------|--------------------------------------|------7-----------------7-------------|------------------------------6-5-3---|------5-----------------5-----6-5-3---|--0-0---0--0-0-6p0--0-0---0-0---5-3---|x2
Then...|--------------------------------------||--------------------------------------||------7-----------------7-------------||------------------------------6-5-3---||------5-----------------5-----6-5-3---||--0-0---0--0-0-6p0--0-0---0-0---5-3---|x4
then... (there are 2 parts to this, this is in the left channel)
|10101010101010101111111111\-10101010101010101010101010\-8-------||----------------------------------------------------------6-6-6-||----------------------------------------------------------------||----------------------------------------------------------------||----------------------------------------------------------------||----------------------------------------------------------------|
-----------------1010101010101010101010101010101010-----------| 6/-10101010101010---------------------------------------------| ----------------------------------------------------7-10-7-7--| --------------------------------------------------------------| --------------------------------------------------------------| --------------------------------------------------------------|
------------------------------------------------------------| ------------------------------------------------------------| 7-1010109-9-9-99-9-9-9--------------------------------------| -----------------------101010101010101010/-1212121212121212-| ------------------------------------------------------------| ------------------------------------------------------------|
--------------101111\8-| -----------------------| -----------------------| 12121212121212---------| -----------------------| -----------------------|
10101110101410101010111111111410141010101010101010111111111^-12| ---------------------------------------------------------------| ---------------------------------------------------------------| ---------------------------------------------------------------| ---------------------------------------------------------------| ---------------------------------------------------------------|x1
Then... (play 9^ rapidly)|---|--------------------------------------------------------------||9^-|10101010101010108-8-8-8-8-8-8-8-1010101010101010\-6-6-6-6-6-6-||---|--------------------------------------------------------------||---|--------------------------------------------------------------||---|--------------------------------------------------------------||---|--------------------------------------------------------------|
--------|
6-6/ 10-| --------| --------| --------| --------|x2
this is also going on at the same time as the above
|---------||---------||---------||--6-5-3--||--6-5-3--||----5-3--|x1
|----------------------------------||----------------------------------||----------------------------------||--6-5-3-0-------------------------||--6-5-3-0-------------------------||----5-3-0-0-0-0-0-0-0-0-0-0-0-0-0-|4x
|-------------------------------||-------------------------------||-------------------------------||--6-5-3--3-3-----3-3--5-5--0-0-||--6-5-3--3-3-----3-3--5-5--0-0-||----5-3--3-3-----3-3--5-5--0-0-|x1
Then....|----------------------||----------------------||----------------------||--10--0--10-0-5--8-10-||--8---0--8--0-3--6-8--||------0-----0---------|
--------------------------------------|--------------------------------------|------7-----------------7-------------|------------------------------6-5-3---|------5-----------------5-----6-5-3---|--0-0---0--0-0-6p0--0-0---0-0---5-3---|x2
Then...|--------------------------------------||--------------------------------------||------7-----------------7-------------||------------------------------6-5-3---||------5-----------------5-----6-5-3---||--0-0---0--0-0-6p0--0-0---0-0---5-3---|x4
Tap to rate this tab
 
# A B C D E F G H I J K L M N O P Q R S T U V W X Y Z