Prong - Snap Your Fingers Snap Your Neck Single Edit tab

Band:  Prong
Album: Cleansing
Song:  Snap Your Fingers, Snap Your Neck(Single Edit)

Copyright (c)  (Epic) (1994)
Version 1.0 - (04/09/06)

Transcribed By: Steve
Email:          stephen.elvidge1@ntlworld.com


.  - palm mute           /  - slide up to
\  - slide down to       ~  - vibrato
h  - hammer on           b  - Bend
p  - pull off            Suffixes for bend
t  - tap                 f  - full bend    h - half bend
ph - pinched harmonic    q  - quarter bend t - tap bend
*  - see comment         ^  - Hold bend    r release bend
x  - Stuccatto           ~  - vibrato bend
,  - slight palm mute    () - ghost note, sustained note
"  - tremolo note        <> - harmonic
pb - pre bend

Tuning C G C F A D


 Bass and drums on own

[-PM-]|-------------------------------------------------------------------||------------------------------------------------3-------(3)--------||------------------------------------------------0-------(0)--------||-------0---------------(0)--------------0-0-0-0-0-------(0)--------||-3--3--0---------------(0)--------------4-4-4-4---------(4)--------||-3--3--0---------------(0)-----------------------------------------|
|------------------------------------------------------------------||-----------------------------------------3-------(3)--------------||-----------------------------------------0-------(0)--------------||-0-------------(0)---------------0-0-0-0-0-------(0)--------------||-0-------------(0)---------------4-4-4-4---------------------/16\-||-0-------------(0)-------------------------------------------/16\-|
Main Riff
[--------PM---------] [---PM--] [---PM--]|--------------------------------------------------------------||--------------------------------------------------------------||--------------------------------------------------------------||--------------------------------------------------------------||-1--0-0-0----1--1--0-0-3p0----1--1--0-0-3p0----1--1--0-0-3p0--||-1--0-0-0----1--1--0-0-3p0----1--1--0-0-3p0----1--1--0-0-3p0--|
[-PM-] pick scrape|----------------------------------------||----------------------------------------||----------------------------------------||----------------------------------------||-4--3--0------------(0)------------\\---||-4--3--0------------(0)-------------\\--|
Verse, bass and drums.
Verse fill|-------------||-------------||-------------||-------------||-16\-0-0-3p0-||-16\-0-0-3p0-| Rpt 2 X
Bridge
~~ ph~|-----------------------------||-----------------------------||-----------------------------||-----------------------------||-------------------------5---||-/16\-0-6p0-5-p0-6p0-5p0-----|
~~ ph~|-----------------------||-----------------------||-----------------------||-----------------------||--------------------5--||-0-6p0-5-p0-6p0-5p0----| Rpt 7 X
Chorus
|----------------------------||-5-5/8-8-8\7-7-7-7-7-7-7-7--||-5-5/8-8-8\7-7-7-7-7-7-7-7--||----------------------------||-3-3/6-6-6\5-5-5-5-5-5-5-5--||----------------------------| Rpt 4 X
|-------||-------||-------||-------||-/22\--||-/22\--|
PM [---PM--] [---PM--] [---PM--] [-PM-]|-----------------------------------------------------------------||-----------------------------------------------------------------||-----------------------------------------------------------------||-----------------------------------------------------------------||-0-0-3p0----1--1--0-0-3p0----1--1--0-0-3p0-1--1--0-0-3p0---1--1--||-0-0-3p0----1--1--0-0-3p0----1--1--0-0-3p0-1--1--0-0-3p0---1--1--|
2nd Verse
[-----------PM------------]|-----------------------------||-----------------------------||-----------------------------||-----------------------------||-3-5-5-5-5-5-5-5-5-5-5-5-5---||-----------------------------| 14 X
Rpt Chorus Rpt Bridge
Guitar solo ~~~~~~~~~~~~~~~~~~~ ~~~~~~~~|----------------------------------------------------||----------------------------------------------------||-5-------------7------------5----/8-7/8\/8-7--------||----------------------------------------------------||------------------------5---------------------------||-------6--6----------0------------------------0-----|
~~~~~~ ~~~~~~~~~~~~~~|---------------------------------------------||--------------------------------------10-----||-5---------------7-----5----/8-7/8\/8----7---||--------0------------------------------------||--------------6------------------------------||---------------------------------------------|
|---------------------------------------||---55-----55-----55-----55------77-----||-5----5-5----5-5----5-5----5-/7----7---||---------------------------------------||---------------------------------------||---------------------------------------|
phphphphphphphphphphphphph|---------------------------------------------------------||---55-----55------8---7-------8-8-8-7-7-8-8-7-7-7-8-7-7--||-5----5-5----5-/7----------------------------------------||---------------------------------------------------------||---------------------------------------------------------||---------------------------------------------------------|
|---------------------------------||-7-8-8-8-8/10-\------------------||-7-------------5/7-7-------------||------------------------/10\-----||---------------------------------||---------------------------------|
Backing for solo is main riff and chorus Rpt Chorus 2 X Outro
PM [---PM--] [---PM--] [---PM--]|----------------------------------------------------------------||----------------------------------------------------------------||----------------------------------------------------------------||----------------------------------------------------------------||-0-0-3p0----1--1--0-0-3p0----1--1--0-0-3p0----1--1--0-0-3p0-----||-0-0-3p0----1--1--0-0-3p0----1--1--0-0-3p0----1--1--0-0-3p0-----|
[---PM--] [---PM--] [---PM--] [---PM--]|----------------------------------------------------------------||----------------------------------------------------------------||----------------------------------------------------------------||----------------------------------------------------------------||-1-1-0-0-3p0----1--1--0-0-3p0----1--1--0-0-3p0----1--1--0-0-3p0-||-1-1-0-0-3p0----1--1--0-0-3p0----1--1--0-0-3p0----1--1--0-0-3p0-|
[--PM--] [-PM-] |--------------------------||--------------------------||--------------------------||--------------------------||-1-1-0-0-3p0----1--1--0---||-1-1-0-0-3p0----1--1--0---|
END
Tap to rate this tab
 
# A B C D E F G H I J K L M N O P Q R S T U V W X Y Z