Propagandhi - Natural Disasters tab

 
                            Propagandhi - Natural Disasters
/ = slide-pull down

p = pull off

b = bend 1/2 



Riff 1  : 

|----------7----7-------------------7----7-----------------||--------0---05-------------------0---05-------------------||-4-4-4--------------------4-4-4--------------------4-4-4--||-4-4-4--------------5-5---4-4-4-------------5-5----4-4-4--||-2-2-2--------------5-5---2-2-2-------------5-5----2-2-2--||--------------------3-3---------------------3-3-----------|
Riff 2 :
|-----------------------------||-----------------------------||------4-----6b/6-------2-----||----4-----7----------2---2---||--2-------5--------0---------||-----------------------------|
|-------------------------------5------||-----------------------------5---5----||------4-----6b/6-------2-----6-----6--||----4-----7----------2---2---7--------||--2-------5--------0---------5--------||---------------------------x----------|
|---0---0-0---------0-----||----0---0----------0-----||-2---2-------------0-----||-4-----------------0-----||-0---------7-------0-----||-----------0--xx--10-----|
PLay this riff twice!!! Riff 3 :
|----------------------||----5-----5-----------||------7-----7---------||--7-----7-----7-....--||----------------------||----------------------|
Riff 1 :
|---------7----7-------------------7----7-------------||-------0---05-------------------0---05---------------||-4-4-4--------------------4-4-4----------------------||-4-4-4--------------5-5---4-4-4-------------5-5------||-2-2-2--------------5-5---2-2-2-------------5-5------||--------------------3-3---------------------3-3------|
|---------7----7-------------------7----7-------------||-------0---05-------------------0---05---------------||-4-4-4--------------------4-4-4----------------------||-4-4-4--------------5-5---4-4-4-------------5-5------||-2-2-2--------------5-5---2-2-2-------------5-5------||--------------------3-3---------------------3-3------|
|----------7----7-----------||--------0---05-------------||-4-4-4---------------------||-4-4-4--------------5-5----||-2-2-2--------------5-5----||--------------------3-3----|
Riff 2 (modified) :
|-----------------------------||-----------------------------||------4-----6b/6-------2-----||----4-----7----------2---2---||--2-------5--------0---------||-----------------------------|...
Riff 1 :
|---------7----7-------------------7----7-------------||-------0---05-------------------0---05---------------||-4-4-4--------------------4-4-4----------------------||-4-4-4--------------5-5---4-4-4-------------5-5------||-2-2-2--------------5-5---2-2-2-------------5-5------||--------------------3-3---------------------3-3------|
|---------7----7-------------------7----7-------------||-------0---05-------------------0---05---------------||-4-4-4--------------------4-4-4----------------------||-4-4-4--------------5-5---4-4-4-------------5-5------||-2-2-2--------------5-5---2-2-2-------------5-5------||--------------------3-3---------------------3-3------|
|----------7----7-----------||--------0---05-------------||-4-4-4---------------------||-4-4-4--------------5-5----||-2-2-2--------------5-5----||--------------------3-3----|
Riff 2 (modified) :
|-----------------------------||-----------------------------||------4-----6b/6-------2-----||----4-----7----------2---2---||--2-------5--------0---------||-----------------------------|...
Riff 4 :
|----------------------------------||----------------------------------||-4-4-4---4-4-4-4------------------||-4-4-4---4-4-4-4------------------|repeat 7 times|-2-0-x---x-0-2-0------------------||-----3---3-------2p0--------------|
-Do Riff 1 Again- Riff 3 :
|----------------------||----5-----5-----------||------7-----7---------||-/7-----7-----7-....--||----------------------||----------------------|
Riff 4 :
|----------------------------------||----------------------------------||-4-4-4---4-4-4-4------------------||-4-4-4---4-4-4-4------------------|repeat 3 times|-2-0-x---x-0-2-0------------------||-----3---3-------2p0--------------|
|----------------------------||----------------------------||-4-4-4----------4-----------||-4-4-4----------4-----------||-2-0-x--x-x-x-x-2-----------||-----3--3-3-3-3-------------|
for suggestions and comments e-mail me on belvedere-0s@net.hr
Tap to rate this tab
 
# A B C D E F G H I J K L M N O P Q R S T U V W X Y Z