Protest The Hero - Wretch tab

4/4 Gtr I|---------------------------|--------------------------------||---------------------------|--------------------------------||---------------------------|--------------------------------||---------------------------|--------------------------------||-7-6------7-6------7-6-7-6-|--7-6-------7-6-------7-6-------||-----8-5------8-5----------|------8-5-------8-5-------8-5---|
|---------------------------------------||---------------------------------------||---------------------------------------||-9-8---------7-10-7-9-8---------7-10-7-||-----10-7-10------------10-7-10--------||---------------------------------------|
|-----------------------------------------||-----------------------------------------||-----------------------------------------||-9-8---------7-10-7-9-8---------7-10-7---||-----10-7-10------------10-7-10----------||-----------------------------------------|
|-----------------------------|-------------------------------||-----------------------------|-------------------------------||-----------------------------|-------------------------------||-----------------------------|-------------------------------||-7-6-------7-6-------7-6-7-6-|-7-6-------7-6-------7-6-------||-----8-5-------8-5-----------|-----8-5-------8-5-------8-5---|
|---------------------------------------||---------------------------------------||---------------------------------------||-9-8---------7-10-7-9-8---------7-10-7-||-----10-7-10------------10-7-10--------||---------------------------------------|
|-----------------------------------------||-----------------------------------------||-----------------------------------------||-9-8---------7-10-7-9-8---------7-10-7---||-----10-7-10------------10-7-10----------||-----------------------------------------|
7/4|----------------------------------------------------||----------------------------------------------------||----------------------------------------------------||---------2--2------0h2--2--2----------0-2--2--2-----||---0h2h3-2--2----0------2--2----0-2-3------2--2-----||-3-------0--0-----------0--0--3------------0--0-----|
|---------------------------------------------------------||---------------------------------------------------------||--------------------------------------------------0h2----||---------2--2-------0h2-2--2----------0-2---2--2---------||---0h2h3-2--2-----0-----2--2----0-2-3-------2--2---------||-3-------0--0-----------0--0--3-------------0--0---------|
11/8|---------------------------------------------------||---------------------------------------------------||---------------------------------------------------||----------3--2--2-------0--2--2--2-----------3--5--||----0--2-----2--2----0--------2--2-----0--2--------||-3-----------0--0-------------0--0--3--------------|
6/4|-------------------------------------------------||-------------------------------------------------||-------------------------------------------------||-----------2--2------0-2-2--2----------0-2--2----||---0-2-3---2--2----0-----2--2----0-2-3------2----||-3---------0--0----------0--0--3------------0----|
4/4 T T T|-10h11p8h11h15p8h11p10h11p8h10h15p11p10h13p7-||---------------------------------------------||---------------------------------------------||---------------------------------------------||---------------------------------------------||---------------------------------------------|
T T T|-10h11p8h11h15p8h11p10h11p8h10h15p11p10h13p7--||----------------------------------------------||----------------------------------------------||----------------------------------------------||----------------------------------------------||----------------------------------------------|
6/4|-------------------------------------------------||-------------------------------------------------||-------------------------------------------------||-----------2--2------0-2-2--2----------0-2--2----||---0-2-3---2--2----0-----2--2----0-2-3------2----||-3---------0--0----------0--0--3------------0----|
4/4 T T T|-10h11p8h11h15p8h11p10h11p8h10h15p11p10h13p7-||---------------------------------------------||---------------------------------------------||---------------------------------------------||---------------------------------------------||---------------------------------------------|
T T T|-10h11p8h11h15p8h11p10h11p8h10h15p11p10h13p7--||----------------------------------------------||----------------------------------------------||----------------------------------------------||----------------------------------------------||----------------------------------------------|
|---------------------|----------------------|----------------------||---------------------|----------------------|----------------------||---------------------|----------------------|----------------------||-2---------------2-1-|-2----------------2-1-|-1--------------------||-2---------2-1-2-----|------------2-1-2-----|------------------7-9-||-0---3-2-3-----------|---0--3-2-3-----------|---2--5-4-5-8-7-8-----|
|--------------------------------------------||--------------------------------------------||-----------------11-14-11-------------------||-----------10-13----------13-10-------------||------9-12----------------------12-9------9-||-8-11--------------------------------11-8---|
|---------------------|-----------------------||---------------------|-----------------------||---------------------|-----------------------||-2---------------2-1-|-2----------------2-1--||-2---------2-1-2-----|------------2-1-2------||-0---3-2-3-----------|---0--3-2-3------------|
|-18-14-----------------12-8---------------||-------16----18-15--16------10---12-9--10-||----------15-------------------9----------||------------------------------------------||------------------------------------------||------------------------------------------|
|-16-13-----------------10-7---------------||-------14----16-13--14------8---10-7--8---||----------13------------------7-----------||------------------------------------------||------------------------------------------||------------------------------------------|
|---------------------|----------------------|----------------------||---------------------|----------------------|----------------------||---------------------|----------------------|----------------------||-2---------------2-1-|-2----------------2-1-|-1--------------------||-2---------2-1-2-----|------------2-1-2-----|------------------7-9-||-0---3-2-3-----------|---0--3-2-3-----------|---2--5-4-5-8-7-8-----|
|-----------------------------------------------||-----------------------------------------------||-----------------11-14-11----------------------||-----------10-13----------13-10----------------||------9-12----------------------12-9-------9---||-8-11--------------------------------11-8------|
|---------------------|-----------------------||---------------------|-----------------------||---------------------|-----------------------||-2--------------1-2--|-2-----------------2-1-||-2--------1-2-1------|-------------2-1-2-----||-0--3-2-3------------|---0---3-2-3-----------|
|-18-14-----------------12-8---------------||-------16----18-15--16------10---12-9--10-||----------15-------------------9----------||------------------------------------------||------------------------------------------||------------------------------------------|
|-16-13-----------------10-7---------------||-------14----16-13--14------8---10-7--8---||----------13------------------7-----------||------------------------------------------||------------------------------------------||------------------------------------------|
|-----------------------------|-------------------------------||-----------------------------|-------------------------------||-----------------------------|-------------------------------||-----------------------------|-------------------------------||-7-6-------7-6-------7-6-7-6-|-7-6-------7-6-------7-6-------||-----8-5-------8-5-----------|-----8-5-------8-5-------8-5---|
|---------------------------------------||---------------------------------------||---------------------------------------||-9-8---------7-10-7-9-8---------7-10-7-||-----10-7-10------------10-7-10--------||---------------------------------------|
|-----------------------------------------||-----------------------------------------||-----------------------------------------||-9-8---------7-10-7-9-8---------7-10-7---||-----10-7-10------------10-7-10----------||-----------------------------------------|
|-----------------------------|-------------------------------||-----------------------------|-------------------------------||-----------------------------|-------------------------------||-----------------------------|-------------------------------||-7-6-------7-6-------7-6-7-6-|-7-6-------7-6-------7-6-------||-----8-5-------8-5-----------|-----8-5-------8-5-------8-5---|
|---------------------------------------||---------------------------------------||---------------------------------------||-9-8---------7-10-7-9-8---------7-10-7-||-----10-7-10------------10-7-10--------||---------------------------------------|
|-----------------------------------------||-----------------------------------------||-----------------------------------------||-9-8---------7-10-7-9-8---------7-10-7---||-----10-7-10------------10-7-10----------||-----------------------------------------|
|-------------------------------------|-----------------------------------||-------------------------------------|-----------------------------------||-------------------------------------|-----2h4-----2h4-----2h4-----2h4---||-----7h11-----7h11-----7h11-----7h11-|-0h4-----0h4-----0h4-----0h4-------||-7h9------7h9------7h9------7h9------|-----------------------------------||-------------------------------------|-----------------------------------|
|---------------------------------|---------------------------------------||---------------------------------|---------------------------------------||-----1h2-----1h2-----1h2-----1h2-|---------------------------------------||-0h4-----0h4-----0h4-----0h4-----|------7h9------7h9------7h9------7h9---||---------------------------------|-7h11-----7h11-----7h11-----7h11-------||---------------------------------|---------------------------------------|
|-----------------------------------|-----------------------------------------||-----------------------------------|-----------------------------------------||------7h9------7h9-----6h7-----6h7-|-----------------------------------------||-7h11-----7h11-----6h9-----6h9-----|------9h11------9h11------7h9------7h9---||-----------------------------------|-9h12------9h12------7h11-----7h11-------||-----------------------------------|-----------------------------------------|
|-------------------------------------|-------------------------------------||-------------------------------------|-------------------------------------||-------------------------------------|-------------------------------------||-----6h7-----6h7------9h10------9h10-|-----6h7-----6h7------7h9------7h9---||-5h9-----5h9-----8h12------8h12------|-5h9-----5h9-----7h11-----7h11-------||-------------------------------------|-------------------------------------|
|-----------------------------|-------------------||-----------------------------|-------------------||-----------------------------|-------------------||-----------------------------|-------------------||-7-6-------7-6-------7-6-7-6-|-7-6---------------||-----8-5-------8-5-----------|-----8-3b5--(3)----|
|------------------------------|---------------------------||------------------------------|---------------------------||------------------------------|---------------------------||-14---13--10--7--7-7-7---7-7--|-14---13--10---7-----------||-14---13--10--7--7-7-7---7-7--|-14---13--10---7--[5]b7----||-12---11---8--5--5-5-5---5-5--|-12---11---8---5-----------|
|-----------------------------|-8-0-5-0-4-7-0-10-0-7-0-5-8-0-7-10---||-----------------------------|-------------------------------------||-----------------------------|-------------------------------------||-14---13--10--7--7-7-7---7-7-|-------------------------------------||-14---13--10--7--7-7-7---7-7-|-------------------------------------||-12---11---8--5--5-5-5---5-5-|-------------------------------------|
|-----------------------------|---------------------------||-----------------------------|---------------------------||-----------------------------|---------------------------||-14---13--10--7--7-7-7---7-7-|-14---13--10---7-----------||-14---13--10--7--7-7-7---7-7-|-14---13--10---7--[5]b7----||-12---11---8--5--5-5-5---5-5-|-12---11---8---5-----------|
|-------------------------------||-------------------------------||-------------------------------||-14---13---10--7---7-7-7---7-7-||-14---13---10--7---7-7-7---7-7-||-12---11----8--5---5-5-5---5-5-|
7/4|-8-0-5-0-4-7-0-10-0-7-0-5-8-0-12-0-8-0-7-10-0-13-0-10-0-11-14-||--------------------------------------------------------------||--------------------------------------------------------------||--------------------------------------------------------------||--------------------------------------------------------------||--------------------------------------------------------------|
4/4 5/8 4/4|---------------------------|---------------|----------------------------||---------------------------|---------------|----------------------------||---------------------------|---------------|----------------------------||-14--13--10--7--7-7-7--7-7-|-14--13--10--7-|-14--13--10--7--7-7-7--7-7--||-14--13--10--7--7-7-7--7-7-|-14--13--10--7-|-14--13--10--7--7-7-7--7-7--||-12--11---8--5--5-5-5--5-5-|-12--11---8--5-|-12--11---8--5--5-5-5--5-5--|
7/8|------------------------------|---------------||------------------------------|---------------||------------------------------|---------------||-14--13--10--7----------------|---------------||-14--13--10--7--9-7-6---------|---------------||-12--11---8--5----------8-7-5-|--3---3--------|
4/4|----------------------------|-------------------------||----------------------------|-------------------------||----------------------------|-------------------------||-14--13--10--7--7-7-7---7-7-|-14--13--10--7-----------||-14--13--10--7--7-7-7---7-7-|-14--13--10--7--[5]b7----||-12--11---8--5--5-5-5---5-5-|-12--11---8--5-----------|
|----------------------------||----------------------------||----------------------------||-14--13--10--7--7-7-7---7-7-||-14--13--10--7--7-7-7---7-7-||-12--11---8--5--5-5-5---5-5-|
7/4|-8-0-5-0-4-7-0-10-0-7-0-5-8-0-12-0--8-0-7-10-0-13-0-10-0-11-14-0--||------------------------------------------------------------------||------------------------------------------------------------------||------------------------------------------------------------------||------------------------------------------------------------------||------------------------------------------------------------------|
|-8--0--5--0--4--7--0--10--0--7--0--5--8--0--12--0--8--0--7--10--0--13--0--10--0--11--14--0----||----------------------------------------------------------------------------------------------||----------------------------------------------------------------------------------------------||----------------------------------------------------------------------------------------------||----------------------------------------------------------------------------------------------||----------------------------------------------------------------------------------------------|
|-8--0--5--0--4--7--0--10--0--7--0--5--8--0--12--0--8--0--7--10--0--13--0--10--0--11--14----||-------------------------------------------------------------------------------------------||-------------------------------------------------------------------------------------------||-------------------------------------------------------------------------------------------||-------------------------------------------------------------------------------------------||-------------------------------------------------------------------------------------------|
4/4|--------------------------|---------------------------||--------------------------|---------------------------||-10h13-----10-13-14-13-10-|-13----(13)-10-13-14-13-10-||--------------------------|---------------------------||--------------------------|---------------------------||--------------------------|---------------------------|
|----------------------------||----------------------------||-13-10--(10)--7-9-10-10p9-7-||----------------------------||----------------------------||----------------------------|
|-----------|---------------------------||-----------|---------------------------||-6------6--|-13----(13)-10-13-14-13-10-||-----------|---------------------------||-----------|---------------------------||-----------|---------------------------|
|---------------------------|------------------------------||---------------------------|------------------------------||-13----(13)-10-13-14-13-10-|-13-10-(10)---7-9-10-10p9-7---||---------------------------|------------------------------||---------------------------|------------------------------||---------------------------|------------------------------|
|-----------|----------------------------|-----------------------------||-----------|----------------------------|-----------------------------||-6------6--|----------------------------|--------------------10-9-7---||-----------|---6-7-9----6-7-9--10-9-7---|---6-7-9----6-7-9----------9-||-----------|-7--------7---------------8-|-7--------7------------------||-----------|----------------------------|-----------------------------|
|-----------------------------|---------------------------------------||-----------------------------|---------------------------------------||-----------------------------|--------7---------7-9-10--9-10-12------||---6-7-9----6-7-9--10-9-7----|-7-9-10---10-9-7-----------------------||-7--------7---------------10-|---------------------------------------||-----------------------------|---------------------------------------|
|----------------------------|-------------------------------||----------------------------|-------------------------------||----------------------------|-------------------10-9-7------||---6-7-9----6-7-9--10-9-7---|---6-7-9----6-7-9---------9----||-7--------7---------------8-|-7--------7--------------------||----------------------------|-------------------------------|
|-----------------------------|------------------------------------------||-----------------------------|-----------------------------9-10-12------||-----------------------------|--------7-------------7-9-10---------9----||---6-7-9----6-7-9--10-9-7----|-7-9-10---10-9-7-9-10---------------------||-7--------7---------------10-|------------------------------------------||-----------------------------|------------------------------------------|
|---------------------|----------------------|----------------------||---------------------|----------------------|----------------------||---------------------|----------------------|----------------------||-2---------------2-1-|-2----------------2-1-|-1--------------------||-2---------2-1-2-----|------------2-1-2-----|------------------7-9-||-0---3-2-3-----------|---0--3-2-3-----------|---2--5-4-5-8-7-8-----|
|--------------------------------------------||--------------------------------------------||-----------------11-14-11-------------------||-----------10-13----------13-10-------------||------9-12----------------------12-9------9-||-8-11--------------------------------11-8---|
|---------------------|-----------------------||---------------------|-----------------------||---------------------|-----------------------||-2---------------1-2-|-2----------------2-1--||-2---------1-2-1-----|------------2-1-2------||-0---3-2-3-----------|---0--3-2-3------------|
|-18-14----------------12-8---------------||-------16----18-16-15------10---12-9-10--||----------15------------------9----------||-----------------------------------------||-----------------------------------------||-----------------------------------------|
|--16-13----------------10-7---------------||--------14----16-13-14------8---10-7-8----||-----------13-----------------7-----------||------------------------------------------||------------------------------------------||------------------------------------------|
|-14-10-------------------------------------||-------12----14-10-12-14-10----------------||----------11----------------11----13-11-9--||-------------------------------11----------||-------------------------------------------||-------------------------------------------|
|--12-9-----------------------------------||-------10---12-9-10-12-9-----------------||----------9--------------9---11-8-9-11---||---------------------------9-------------||-----------------------------------------||-----------------------------------------|
5/4|------------------------------|---------------------------------------------||------------------------------|-----------------------------7-9-11----------||------------------------------|-----------------------5-7-9--------5-7------||------------------------------|-----------------5-6-8------------------5----||-6-6-6-6--6--6-6-6-6-6--6--6--|---6-6-6-6--6--6-----------------------------||------------------------------|---------------------------------------------|
4/4|-----------------------------|--------------------------------||-----------------------------|--------------------------------||-----------------------------|--------------------------------||--5--5-5-5-5-5--5--5-5-5-5-5-|--5--5-5-5-5-5-5-5-5-5-5-5-5-6--||-----------------------------|--------------------------------||-----------------------------|--------------------------------|
4/4|-------------------------------|-------------------------------------||-------------------------------|--------------------7-9-11-----------||--------------5------------5---|--------------5-7-9--------5-7-9-----||-(6)-5--5-6-8---6-5--5-6-8---6-|-(6)-5--5-7-9--------------------6---||-------------------------------|-------------------------------------||-------------------------------|-------------------------------------|
|-------------------------------|-----------------------------8-10-12----||-------------------------------|----------------------7-9-11------------||--------------5------------5---|----------------5-7-9-------------------||-(6)-5--5-6-8---6-5--5-6-8---6-|-(6)-5--8-5-6-8-------------------------||-------------------------------|----------------------------------------||-------------------------------|----------------------------------------|
|-13---(13)-------------15-17-19----||--------------15-17-18-------------||-----------------------------------||-----------------------------------||-----------------------------------||-----------------------------------|
|-17-15----------------------------------15-17-19---||-------18-17-15----------------15-17-18------------||----------------17-16-14-16-17---------------------||---------------------------------------------------||---------------------------------------------------||---------------------------------------------------|
|------------15-15-15p0-13-13-||-13---(13)-------------------||-----------------------------||-----------------------------||-----------------------------||-----------------------------|
|-13p0-12-12-12p0-10-13-10-------------------------||--------------------------12----------------12----||-----------------------------10----------10-------||--------------------------------12----12----------||-----------------------------------14-------------||--------------------------------------------------|
|------------12--10h12p10----|------17-16-15----------------||-15---(15)---------------13-|-12------------17-16-15-16-17-||----------------------------|------------------------------||----------------------------|------------------------------||----------------------------|------------------------------||----------------------------|------------------------------|
|---------12h15p12-------------||-13-(13)----------13----------||---------------------12-------||------------------------14----||------------------------------||------------------------------|
2/4 4/4|-------------|-----------|---------------------------------||-------------|-----------|---------------------------------||-------------|-----------|---------------------------------||-13-(13)\----|-/2-----2--|-(2)--2-2-2-2-2----/2------------||-------------|----2---2--|-(2)--2-2-2-2-2-------2----------||-------------|------3-0--|-(0)--0-0-0-0-0---------3-0-0----|
|---------------------|-------------------------|------------------------||---------------------|-------------------------|------------------------||---------------------|-------------------------|------------------------||-/2---------/2-----2-|-(2)-2-2-2-2-2-2---------|-/2---------/2-----2----||----3-0--------2---2-|-(2)-2-2-2-2-2---2-------|----3-0--------2---2----||--------0-0------3-0-|-(0)-0-0-0-0-0-----3-0-0-|--------0-0------3-0----|
|------------------------|---------------------|--------------------------||------------------------|---------------------|--------------------------||------------------------|---------------------|--------------------------||-(2)-2--2-2-2--/2-------|-/2---------/2-----2-|-(2)-2-2--2-2--/2---------||-(2)-2--2-2-2-----2-----|----3-0--------2---2-|-(2)-2-2--2-2-----2-------||-(0)-0--0-0-0-------3-0-|--------0-0------3-0-|-(0)-0-0--0-0-------3-0---|
2/4 4/4 "MEOW" "Meowww" |---------|-----------|-----------|-------------||---------|-----------|-----------|-------------||---------|-----------|-----------|-------------||-/2------|-2----2----|-2-2-2-----|---2---------||----3-0--|-2----2----|-2-2-2-----|---2---------||---------|-0----0----|-0-0-0-----|---0---------|
2/4 4/4 ~|--------------|---------------------|------------------------------||--------------|---------------------|------------------------------||--------------|----------7h9-----9--|----------7h9-----9-----------||-2------------|------7h9-----7h9----|------7h9-----7h9-------------||-2-2-2-2-2----|-7h10----------------|-7h10-------------------------||-0-0-0-0-0----|---------------------|--------------------0--(0)----|
~ ~|-----------------------|--------------------------|--------------------||-----------------------|--------------------------|--------------------||----------7h9-----9----|----------7h9-----9-------|---------4h5-----5--||------7h9-----7h9------|------7h9-----7h9---------|-----4h5-----4h5----||-7h10------------------|-7h10---------------------|-3h7----------------||-----------------------|--------------------0-(0)-|--------------------|
~|--------------------------|----------------------|---------------------------||--------------------------|----------------------|---------------------------||---------4h5-----5--------|---------4h5-----5----|---------4h5-----5---------||-----4h5-----4h5----------|-----4h5-----4h5------|-----4h5-----4h5-----------||-3h7----------------------|-3h7------------------|-3h7-----------------------||-------------------0-(0)--|----------------------|-------------------0-(0)---|
|----------12----------------12-------------------||----12-13----13-12----12-13----13-12-------------||-12----------------12----------------12-11-------||-------------------------------------------14-10-||-------------------------------------------------||-------------------------------------------------|
|----------12-10-------------------11-13-10---------||----12-13-------12-------------13----------11------||-12----------------12-------13----------------10---||----------------------12-13------------------------||---------------------------------------------------||---------------------------------------------------|
|----------12----------------12-------------------||----12-13----13-12----12-13----13-12-------------||-12----------------12----------------12-11-------||-------------------------------------------14-10-||-------------------------------------------------||-------------------------------------------------|
|----------12-10-------------------11-13-10---------||----12-13-------12-------------13----------11------||-12----------------12-------13----------------10---||----------------------12-13------------------------||---------------------------------------------------||---------------------------------------------------|
T T T|-10h11p8h11h15p8h11p10h11p8h10h15p11p10h13p7-||---------------------------------------------||---------------------------------------------||---------------------------------------------||---------------------------------------------||---------------------------------------------|
T T T|-10h11p8h11h15p8h11p10h11p8h10h15p11p10h13p7---||-----------------------------------------------||-----------------------------------------------||-----------------------------------------------||-----------------------------------------------||-----------------------------------------------|
T T T|-10h11p8h11h15p8h11p10h11p8h10h15p11p10h13p7-||---------------------------------------------||---------------------------------------------||---------------------------------------------||---------------------------------------------||---------------------------------------------|
T T T|-10h11p8h11h15p8h11p10h11p8h10h15p11p10h13p7---||-----------------------------------------------||-----------------------------------------------||-----------------------------------------------||-----------------------------------------------||-----------------------------------------------|
T T T|-10h11p8h11h15p8h11p10h11p8h10h15p11p10h13p7-||---------------------------------------------||---------------------------------------------||---------------------------------------------||---------------------------------------------||---------------------------------------------|
T T T|-10h11p8h11h15p8h11p10h11p8h10h15p11p10h13p7---||-----------------------------------------------||-----------------------------------------------||-----------------------------------------------||-----------------------------------------------||-----------------------------------------------|
T T T|-10h11p8h11h15p8h11p10h11p8h10h15p11p10h13p7-||---------------------------------------------||---------------------------------------------||---------------------------------------------||---------------------------------------------||---------------------------------------------|
T T T|-10h11p8h11h15p8h11p10h11p8h10h15p11p10h13p7--|--8-----*||----------------------------------------------|--------*||----------------------------------------------|--------*||----------------------------------------------|--------*||----------------------------------------------|--------*||----------------------------------------------|--------*|
Tap to rate this tab
 
# A B C D E F G H I J K L M N O P Q R S T U V W X Y Z