Protest The Hero - Spoils tab version 3

Artist: Protest the Hero
Song: Spoils
Album: Fortress
Tabbed by Tom Delonge II + drawnacrol
Tuning: Half Step down Eb Ab Db Gb Bb Eb

This is all Luke’s guitar(Left Channel) apart from one bar exported from my Ver 2 Guitar Pro tab.

It would be much easier to learn this song from the guitar pro tab:
http://tabs.ultimate-guitar.com/p/protest_the_hero/spoils_ver2_guitar_pro.htm

Listen to the instrumental version of this song on youtube to hear/learn the song:
http://www.youtube.com/watch?v=cxsy09r1Rdg

|--17----------------17----------|-17----------------15----------------||--------15-14-------------15-14-|-------15-14-------------13-12-------||-----14----------------14-------|----14----------------12-------------||--------------16-14-------------|-------------16-14-------------14-12-||--------------------------------|-------------------------------------||--------------------------------|-------------------------------------|
|--17----------------17----------|-17----------------15----------------||--------15-14-------------15-14-|-------15-14-------------13-12-------||-----14----------------14-------|----14----------------12-------------||--------------16-14-------------|-------------16-14-------------14-12-||--------------------------------|-------------------------------------||--------------------------------|-------------------------------------|
|----9-7------12-17--------------------------||--------7-10----------15-14-----------------||-------------------14-------11-9------12----||--7--------------------------------------10-||---------------------------------12-8-------||--------------------------------------------|
|----9-7------12-17--------------------------||--------7-10----------15-14-----------------||-------------------14-------11-9------------||--7-----------------------------------10-10-||---------------------------------12-8-------||--------------------------------------------|
|----9-7------12-17--------------------------||--------7-10----------15-14-----------------||-------------------14-------11-9------12----||--7--------------------------------------10-||---------------------------------12-8-------||--------------------------------------------|
|----9-7------12-17----17p13----------13-17p13---------------||--------7-10----------------15----15----------15------------||-------------------14----------14----------------14---------||--7--------------------------------------------------15-----||--------------------------------------------------------17--||------------------------------------------------------------|
|-----------------------------------------------------------||-----------------------------------------------------------||-----------------------------------------------------------||--2--2-2-2-2--5--7--7-7-7-7--5--2--2-2--5--5-5--7--7-7-----||--0--0-0-0-0--3--5--5-5-5-5--3--0--0-0--3--3-3--5--5-5--5--||--------------------------------------------------------3--|PM . . . . . . . . . . . . . .
|--------------------------------------------------------||--------------------------------------------------------||--------------------------------------------------------||--2--2-2-2-2--5--7--7-8-8-8-8--9--9-9-8--8-8-7----------||--0--0-0-0-0--3--5--5-6-6-6-6--7--7-7-6--6-6-5----------||--------------------------------------------------------|PM . . . . . . . . . . . .
|-----------------------------------------------------------||-----------------------------------------------------------||-----------------------------------------------------------||--2--2-2-2-2--5--7--7-7-7-7--5--2--2-2--5--5-5--7--7-7-----||--0--0-0-0-0--3--5--5-5-5-5--3--0--0-0--3--3-3--5--5-5--5--||--------------------------------------------------------3--|PM . . . . . . . . . . . . . .
|--------------------------------------------------------||--------------------------------------------------------||--------------------------------------------------------||--2--2-2-2-2--5--7--7-8-8-8-8--9--9-9-8--8-8-7--7-7-5---||--0--0-0-0-0--3--5--5-6-6-6-6--7--7-7-6--6-6-5--5-5-3---||--------------------------------------------------------|PM . . . . . . . . . . . . . .
|---------------------------------------------------||-----------13-------11-------13-------11-------13--||-----12-11----11-12----12-11----11-12----12-11-----||--10-----------------------------------------------||---------------------------------------------------||---------------------------------------------------|
|-----------------------------------------------------------||-----------------------------------------------------------||-----------------------------------------------------------||--2--2-2-2-2--5--7--7-7-7-7--5--2--2-2--5--5-5--7--7-7-----||--0--0-0-0-0--3--5--5-5-5-5--3--0--0-0--3--3-3--5--5-5--5--||--------------------------------------------------------3--|PM . . . . . . . . . . . . . .
|--------------------------------------------------------||--------------------------------------------------------||--------------------------------------------------------||--2--2-2-2-2--5--7--7-8-8-8-8--9--9-9-8--8-8-7--7-7-5---||--0--0-0-0-0--3--5--5-6-6-6-6--7--7-7-6--6-6-5--5-5-3---||--------------------------------------------------------|PM . . . . . . . . . . . . . .
|--------------------------------------------------------||-----------13-------11-------13-------11-------13----13-||-----12-11----11-12----12-11----11-12----12-11----------||--10----------------------------------------------10----||--------------------------------------------------------||--------------------------------------------------------|
|---------------------------------------------------||-----------13-------11-------13-------11-------13--||-----12-11----11-12----12-11----11-12----12-11-----||--10-----------------------------------------------||---------------------------------------------------||---------------------------------------------------|
|----------------------------------------------------------||----------------------------------------------------------||--9-------------------------------------------------------||--9------2---2--2--2--9----9-12p8h12-11----11-14p10h14----||--7------2---2--2--2----10--------------12----------------||------0--0---0--0--0--------------------------------------|PM . . . .
|-------------------------------------------------------------------------||-------------------------------------------------------------------------||--9---------------------13-14-15-16-14-15-16-17-15-16-17-18-16-17-18-19--||--9------2---2--2--2-----------------------------------------------------||--7------2---2--2--2-----------------------------------------------------||------0--0---0--0--0-----------------------------------------------------|PM . . . .
|-----------------------------------------------||-----------------------------------------------||--9--------------------------------------------||--9-----2---2--2-2-2---------------------------||--7-----2---2--2-2-2-------6--7----7--6-----6--||-----0--0---0--0-0-0---0---7--8----8--7-----7--|PM . . . . .
|-----------------------------------------------------------||-----------------------------------------------------------||--9-----------------------------------------------9h11h12--||--9-----2---2--2-2-2---------------------9h10h12-----------||--7-----2---2--2-2-2------------9h10h12--------------------||-----0--0---0--0-0-0---8h10h12-----------------------------|PM . . . . .
|-----------------------------------------------||-----------------------------------------------||--9--------------------------------------------||--9-----2---2--2-2-2---------------------------||--7-----2---2--2-2-2-------6--7----7--6-----6--||-----0--0---0--0-0-0---0---7--8----8--7-----7--|PM . . . . .
|----------------------------------------------------------------------||----------------------------------------------------------------------||--9-------------------11-10-9-10-11-12-13-14-13-12-11-12-13-14-15-16--||--9-----2---2--2-2-2--------------------------------------------------||--7-----2---2--2-2-2--------------------------------------------------||-----0--0---0--0-0-0--------------------------------------------------|PM . . . . .
|--------------------------------------------||----------PH--------------------------------||--(16)\9--9~~~~-----------------------------||--------------------------------------------||------------------------6--7----7--6-----6--||--------------------0---7--8----8--7-----7--|
|-----------------------------------------------------------||-----------------------------------------------------------||--9-----------------------------------------------9h11h12--||--9-----2---2--2-2-2---------------------9h10h12-----------||--7-----2---2--2-2-2------------9h10h12--------------------||-----0--0---0--0-0-0---8h10h12-----------------------------|PM . . . . .
|-----------------------------------------------||-----------------------------------------------||--9--------------------------------------------||--9-----2---2--2-2-2---------------------------||--7-----2---2--2-2-2-------6--7----7--6-----6--||-----0--0---0--0-0-0---0---7--8----8--7-----7--|PM . . . . .
|-----------------------------------------------------------------------||-----------------------------------------------------------------------||--9-------------------16-15-14-13-17-16-15-14-18-17-16-15-19-18-17-16--||--9-----2---2--2-2-2---------------------------------------------------||--7-----2---2--2-2-2---------------------------------------------------||-----0--0---0--0-0-0---------------------------------------------------|PM . . . . .
|-------------14-15--------------------||---------13--------14-----------------||------12--------------13--------------||---11--------------------12-----7-----||--------------------------------7-----||--------------------------------5-----|
|------------------------------------------------------------||------------------------------------------------------------||------------------------------------------------------------||--2--2-2-2-2--5--7--7-7-7-7--5--2--2-2--5--5-5--7--7-7------||--0--0-0-0-0--3--5--5-5-5-5--3--0--0-0--3--3-3--5--5-5--5-5-||--------------------------------------------------------3-3-|PM . . . . . . . . . . . . . .
|--------------------------------------------------------||--------------------------------------------------------||--------------------------------------------------------||--2--2-2-2-2--5--7--7-8-8-8-8--9--9-9-8--8-8-7--7-7-5-5-||--0--0-0-0-0--3--5--5-6-6-6-6--7--7-7-6--6-6-5--5-5-3-3-||--------------------------------------------------------|PM . . . . . . . . . . . . . .
|-----------------------------------------------------------||-----------------------------------------------------------||-----------------------------------------------------------||--2--2-2-2-2--5--7--7-7-7-7--5--2--2-2--5--5-5--7--7-7-----||--0--0-0-0-0--3--5--5-5-5-5--3--0--0-0--3--3-3--5--5-5--5--||--------------------------------------------------------3--|PM . . . . . . . . . . . . . .
|--------------------------------------------------------||--------------------------------------------------------||--------------------------------------------------------||--2--2-2-2-2--5--7--7-8-8-8-8--9--9-9-8--8-8-7--7-7-5-5-||--0--0-0-0-0--3--5--5-6-6-6-6--7--7-7-6--6-6-5--5-5-3-3-||--------------------------------------------------------|PM . . . . . . . . . . . . . .
|--------------------------------------18p15--------------||--------------------------------------------16-----------||-----------17-------15-------17----------------15--------||-----17-16----16-17----17-16----16-17-------------17-----||--15-------------------------------------------------18--||---------------------------------------------------------|
|--------------------------------------18p15--------------||--------------------------------------------16-----------||-----------17-------15-------17----------------15--------||-----17-16----16-17----17-16----16-17-------------17-----||--15-------------------------------------------------18--||---------------------------------------------------------|
|--------------------------------------17p14--------------||--------------------------------------------15-----------||-----------17-------15-------17----------------14--------||------17-16----16-17----17-16----16-17------------16-----||--15-------------------------------------------------17--||---------------------------------------------------------|
|--------------------------------------18p15--------------||--------------------------------------------16-----------||-----------17-------15-------17----------------15--------||-----17-16----16-17----17-16----16-17-------------17-----||--15-------------------------------------------------18--||---------------------------------------------------------|
|--------------------------|-------------------------------||--------------------------|-------------------------------||--14-------13-------------|-------------------------------||---x--------x-------4--3--|--2---2---2---2--------2---2---||--12-------11-------4--3--|--2---2---2---2--------2---2---||--------------------2--1--|--0---0---0---0--------0---0---|
|----------------------------------------|-------------------------------||----------------------------------------|-------------------------------||----------------------------------------|-------------------------------||-----2---2--------3---2-----------------|--2---2---2---2--------2---2---||-----2---2--------3---2-----------------|--2---2---2---2--------2---2---||-----0---0--------1-0-0----3-4-5-6-5----|--0---0---0---0--------0---0---|PM . . . . .
|------------------||------------------||------------------||-----2---2--------||-----2---2--------||-----0---0--------|
|--1-0-0-0-0-0-0-0-0-0-3-0-5-0-3-0-1-0-0-0-0-0-0-0-0-0-3-0-5-0-3-0-||------------------------------------------------------------------||------------------------------------------------------------------||------------------------------------------------------------------||------------------------------------------------------------------||------------------------------------------------------------------|
|--13-12-12-12-12-12-12-12-12-12-15-12-17-12-15-12-13-12-12-12-12-12-12-12-12-12-||--------------------------------------------------------------------------------||--------------------------------------------------------------------------------||--------------------------------------------------------------------------------||--------------------------------------------------------------------------------||--------------------------------------------------------------------------------|
|--5-7-8-7-5-0-4-5-7-5-4-0-5-7-8-7-5-0-7-0-8-0-7-0-||--------------------------------------------------||--------------------------------------------------||--------------------------------------------------||--------------------------------------------------||--------------------------------------------------|
|--7-8-10-8-7-0-5-7-8-7-5-0-7-8-10-8-7-0-8-0-10-0-8-0-||-----------------------------------------------------||-----------------------------------------------------||-----------------------------------------------------||-----------------------------------------------------||-----------------------------------------------------|
|--8-10-12-10-8-0-7-8-10-8-7-0-8-10-12-10-8-0-10-0-12-0-10-0-||------------------------------------------------------------||------------------------------------------------------------||------------------------------------------------------------||------------------------------------------------------------||------------------------------------------------------------|
|--10-12-13-12-10-0-12-13-15-13-12-0-13-15-17-15-13-0-15-17-19-17-15-0-||----------------------------------------------------------------------||----------------------------------------------------------------------||----------------------------------------------------------------------||----------------------------------------------------------------------||----------------------------------------------------------------------|
|-------------------------10--7--8--||--------------------------9--6--7--||--------------------------7--4--5--||--3--2----5--6--7--3--2------------||--3--2----5--6--7--3--2------------||--1--0----3--4--5--1--0------------|
|-------------------------------------------||-------------------------------------------||-------------------------------------------||--3--2----5--6--7--9-9-9-------------------||--3--2----5--6--7--9-9-9----2-2-2-2-2-2----||--1--0----3--4--5--7-7-7----0-0-0-0-0-0----|PM . . . . . . . . .
|-------------------------10--7--8--||--------------------------9--6--7--||--------------------------7--4--5--||--3--2----5--6--7--3--2------------||--3--2----5--6--7--3--2------------||--1--0----3--4--5--1--0------------|
|------------------|----------------------||------------------|----------------------||------------------|----------------------||--------------2---|-(2)--5--6--7--3---2--||--2-2-2-2-2-2-2---|-(2)--5--6--7--3---2--||--0-0-0-0-0-0-0---|-(0)--3--4--5--1---0--|PM . . . . . .
|----------------------------------------||----------------------------------------||----------------------------10h11-------||--------------9h10-----9h10-------9h10--||------8h9-8h9------8h9------------------||--7h8-----------------------------------|
|----------------------------------------------------------------------||----------------------------------------------------------------------||----------------------------------------------------------10h11-------||--2--2--2-2-2-2--2-2--2-2-2-2---------------9h10-----9h10-------9h10--||--2--2--2-2-2-2--2-2--2-2-2-2-------8h9-8h9------8h9------------------||--0--0--0-0-0-0--0-0--0-0-0-0--7h8------------------------------------|PM . . . . . . . . . . . .
|----------------------------------------------------------------------||----------------------------------------------------------------------||----------------------------------------------------------10h11-------||--2--2--2-2-2-2--2-2--2-2-2-2---------------9h10-----9h10-------9h10--||--2--2--2-2-2-2--2-2--2-2-2-2-------8h9-8h9------8h9------------------||--0--0--0-0-0-0--0-0--0-0-0-0--7h8------------------------------------|PM . . . . . . . . . . . .
|---------------------------------------------------------------||---------------------------------------------------------------||---------------------------------------------------10h13-------||--2--2--2--2--2--2-----------------9h12------9h12--------9h12--||--2--2--2--2--2--2-------8h11-8h11------8h11-------------------||--0--0--0--0--0--0--7h10---------------------------------------|PM . . . . . .
|------------------------------------||------------------------------------||---------------------------12---14--||--2--2--2--2--2--2--2--2----x----x--||--2--2--2--2--2--2--2--2---10---12--||--0--0--0--0--0--0--0--0------------|PM . . . . . . . .
|---------------------------------------------------||--------------------------------------20-20-19-19--||--16-16-16-16-14-14-14-14-12-12-12-12--x--x--x--x--||---x--x--x--x--x--x--x--x--x--x--x--x-17-17-16-16--||--14-14-14-14-12-12-12-12-10-10-10-10--------------||---------------------------------------------------|
|--------------------------------------------------||--17-17-17-17-17-15-15-15-15-15-15-15-------------||---x--x--x--x--x--x--x--x--x--x--x--x-12-12-14-14-||--14-14-14-14-14-12-12-12-12-12-12-12--x--x--x--x-||--------------------------------------10-10-12-12-||--------------------------------------------------|
|---------------------------------------------------||--------------------------------------20-20-19-19--||--16-16-16-16-19-19-19-19-12-12-12-12--x--x--x--x--||---x--x--x--x--x--x--x--x--x--x--x--x-17-17-16-16--||--14-14-14-14-17-17-17-17-10-10-10-10--------------||---------------------------------------------------|
|---------------------------------------------------||--17-17-17-17-15-15-15-15--------------------------||---x--x--x--x--x--x--x--x-12/14-14-14-12-12-14-14--||--14-14-14-14-12-12-12-12--x-----x--x--x--x--x--x--||--------------------------10/12-12-12-10-10-12-12--||---------------------------------------------------|
|---------------------------------------------------||---------------------------------------------------||--17-17-17-17-16-16-16-16-14-14-14-14-12-12-12-12--||---x--x--x--x--x--x--x--x--x--x--x--x--x--x--x--x--||--15-15-15-15-14-14-14-14-12-12-12-12-10-10-10-10--||---------------------------------------------------|
|---------------------------------------------------||---------------------------------------------------||--17-17-17-17-19-19-19-19-14/16-16-16-12-12-14-14--||---x--x--x--x--x--x--x--x--x-----x--x--x--x--x--x--||--15-15-15-15-17-17-17-17-12/14-14-14-10-10-12-12--||---------------------------------------------------|
|--------------------------------------------------||--------------------------------------------------||--17-17-17-17-16-16-16-16-19-19-19-19-14-14-14-14-||---x--x--x--x--x--x--x--x--x--x--x--x--x--x--x--x-||--15-15-15-15-14-14-14-14-17-17-17-17-12-12-12-12-||--------------------------------------------------|
|--------------------------||--------------------------| |--12-12-12-12-12-12-12-12-||---x--x--x--x--x--x--x--x-||--10-10-10-10-10-10-10-10-||--------------------------|
|----------------------------------------------------------------||--13-10-12-13-12-10-12-8-10-12-10-8-10-7-8-10-8-7-10-7-8-10-8-7-||----------------------------------------------------------------||----------------------------------------------------------------||----------------------------------------------------------------||----------------------------------------------------------------|
|--------------------------------------------------------||--12-8-10-12-10-8-10-7-8-10-8-7-8-5-7-8-7-5-8-7-5-------||--------------------------------------------------7-5-4-||--------------------------------------------------------||--------------------------------------------------------||--------------------------------------------------------|
|--------------------------------------------------10-8-7--------||--13-10-12-13-12-10-12-8-10-12-10-8-10-7-8-10-8-7--------10-8-7-||----------------------------------------------------------------||----------------------------------------------------------------||----------------------------------------------------------------||----------------------------------------------------------------|
|--------------------------------------------------------||--12-8-10-12-10-8-10-7-8-10-8-7-8-5-7-8-7-5-8-7-5-------||--------------------------------------------------7-5-4-||--------------------------------------------------------||--------------------------------------------------------||--------------------------------------------------------|
|----------------9----------------------------------------||--10-7-9-10-9-7---7-9-10-9-7---------------10------------||-----------------------------11-7-9-11-9-7----7-9-11-9-7-||---------------------------------------------------------||---------------------------------------------------------||---------------------------------------------------------|
|--17----------------17----------|-17----------------15----------------||--------15-14-------------15-14-|-------15-14-------------13-12-------||-----14----------------14-------|----14----------------12-------------||--------------16-14-------------|-------------16-14-------------14-12-||--------------------------------|-------------------------------------||--------------------------------|-------------------------------------|
|--17----------------17----------|-17----------------------------------|||--------15-14-------------15-14-|-------15-14-------------------------|||-----14-------15-14----14-------|----14-------15-14-------------------|||--------------------------------|-------------------------------------|||--------------------------------|-------------------------------------|||--------------------------------|-------------------------------------||
Tap to rate this tab
 
# A B C D E F G H I J K L M N O P Q R S T U V W X Y Z