Protest The Hero - Turn Soonest To The Sea tab

Band: Protest The Hero
Song: Turn Soonest To The Sea
Album: Kezia
Tuning: Drop C ---->DAFCGC
Tabbed by: Jeff Farrow

Ok, as you should know, there are 2 guitars. I just tabbed
out the easiest way to play with only one.

0:00-0:08 |1st 3rd time | 2nd 4th time ||----------------------------|-------------|-----------------||----------------------------|-------------|-555-444-555-4---||----------------------------|-------------|-----------------||----------------------------|-333-333--5-|------------------||---------------0h3h7--0h5h9-|-333-333--5-|------------------||-0h3h7--0h5h9---------------|-333-333-----|-----------------|
|-------13----13-16-13----||----13----13----------13-||-13----------------------||-------------------------||-------------------------||-------------------------|
0:10-0:23|-------13----13-16-20-18-16-18-15-18-14-18-12-|\|----------13----------------------------------| \|----13----------------------------------------| \|-15-------------------------------------------| \|----------------------------------------------| \|----------------------------------------------| \
x3|-------------13-16-13-16-18-15----------------| /|----------14-------------------16-------------| /|-------13-------------------------15----------| /|-11-15-------------------------------17-------| /|----------------------------------------18-15-| /|----------------------------------------------|/
0:10-0:23|-------13----13-16-20-18-16-18-15-18-14-18-12-|\|----------13----------------------------------| \|----13----------------------------------------| \|-15-------------------------------------------| \|----------------------------------------------| \|----------------------------------------------| \
x1|-------------13-16-18-20-18-16-15-------------| /|----------14----------------------16----------| /|-------13----------------------------15-------| /|-11-15----------------------------------17----| /|-------------------------------------------18-| /|----------------------------------------------|/
|---------||---------||---------||-444-4-4-||-444-4-4-||-444-4-4-|
*** * *0:29-0:38|-------------------------------------------------------------------||-------------------------------------------------------------------||-------------------------------------------------------------------||-171717-18-171717171717-18-171717-151515-17-151515151515-17-151515-||--x-x-x--x--x-x-x-x-x-x--x--x-x-x--x-x-x--x--x-x-x-x-x-x--x--x-x-x-||-151515-16-151515151515-16-151515-131313-15-131313131313-15-131313-|
-------------------------------------------------------------------|-------------------------------------------------------------------|-------------------------------------------------------------------|-131313-15-131313131313-15-131313-12121212131313131515151517171717-|--x-x-x--x--x-x-x-x-x-x--x--x-x-x--x-x-x-x-x-x-x-x-x-x-x-x-x-x-x-x-|-111111-13-111111111111-13-111111-10101010111111111313131315151515-|
0:39-0:46|---------------------------------------------------------------------------||---------------------------------------------------------------------------||-11~---13131313-14141414-10~---14141414-13131313---------------------------||--x~----x-x-x-x--x-x-x-x--x~----x-x-x-x--x-x-x-x---3---5---66666666-666666-||--9~---11111111-12121212--8~---12121212-11111111---3---5---66666666-666666-||---------------------------------------------------3---5---66666666-666666-|
0:47-0:55 ******** ******|-------------------------------------------------------------------||-------------------------------------------------------------------||-------------------------------------------------------------------||-171717-18-171717171717-18-171717-151515-17-151515151515-17-151515-||--x-x-x--x--x-x-x-x-x-x--x--x-x-x--x-x-x--x--x-x-x-x-x-x--x--x-x-x-||-151515-16-151515151515-16-151515-131313-15-131313131313-15-131313-|
-------------------------------------------------------------------|-------------------------------------------------------------------|-------------------------------------------------------------------|-131313-15-131313131313-15-131313-12121212131313131515151517171717-|--x-x-x--x--x-x-x-x-x-x--x--x-x-x--x-x-x-x-x-x-x-x-x-x-x-x-x-x-x-x-|-111111-13-111111111111-13-111111-10101010111111111313131315151515-|
0:56-1:04 I canít figure out that riff|--------------------------------------------------------------------------||--------------------------------------------------------------------------||-------------1111-111111-111414-141414------------------------------------||-3-----5-5----x-x--x-x-x--x-x-x--x-x-x----3---5---66666666-666666---0-0-0-||-3-----3-3----9-9--9-9-9--91212-121111----3---5---66666666-666666---0-0-0-||-3----------------------------------------3---5---66666666-666666---0-0-0-|
1:04-1:19 ******** ****** * * *|--------------------------------------------13-16-18-15-----------------||-----------------------------------------13-------------16--------------||--------------------------------------13-------------------15-----------|x2|-000--0--0--000--000-0-0-000-0-0---15-------------------------17----000-||-000--0--0--000--000-0-0-000-0-0---------------------------------18-000-||-000--0--0--000--000-0-0-000-0-0------------------------------------000-| *** * * *** *** * * *** * * ***
1:20-1:27|---------13-16-18-15-------------------------13-16-13-12-------------||-------13------------16--------------------14------------13----------||----13------------------15--------------13------------------12-------|x2|-15------------------------17--------15------------------------14----||------------------------------18--16------------------------------15-||---------------------------------------------------------------------|
1:28-1:29|--------------------------------13-||-------------10-13-10--------------||----------10----------10-----------||-------10----------------10--------||-13-12----------------------12-----||-----------------------------------|
1:30-1:36|-------------16-20-------------16-20-------------16-20-------------16-20-||-------------------------------------------------------------------------||----------18----------------18----------------18----------------18-------|x2|-------18----------------18----------------18----------------18----------||-16-20-------------16-20-------------15-18-------------15-18-------------||-------------------------------------------------------------------------|
1:36-1:40|----------------12----------------12----------------12----------------12-||----------11-14-------------11-14-------------10-13-------------10-13----||-------11----------------11----------------10----------------10----------|x1|----11----------------11----------------10----------------10-------------||-13----------------13----------------12----------------12----------------||-------------------------------------------------------------------------|
1:40-1:42|-------------10-13-10----------18~-||----------11----------11-----------||-------10----------------10--------||----12-----------------------------||-13-------------------------13-----||-----------------------------------|
1:42-1:49|-------------16-20-------------16-20-------------16-20-------------16-20-||-------------------------------------------------------------------------||----------18----------------18----------------18----------------18-------|x2|-------18----------------18----------------18----------------18----------||-16-20-------------16-20-------------15-18-------------15-18-------------||-------------------------------------------------------------------------|
1:49-1:52|----------------12----------------12----------------12----------------12-||----------11-14-------------11-14-------------10-13-------------10-13----||-------11----------------11----------------10----------------10----------|x1|----11----------------11----------------10----------------10-------------||-13----------------13----------------12----------------12----------------||-------------------------------------------------------------------------|
1:53-2:01|-------------10-13-15-12-------------------------13-16-18-15-------------||----------11-------------13-------------------14-------------16----------||-------10-------------------12-------------13-------------------15-------||----12-------------------------14-------15-------------------------17----||-13-------------------------------15-16-------------------------------18-||-------------------------------------------------------------------------|
-------------17-20-21-18-------------------------------|----------18-------------20----------------------------|-------17-------------------21-18----------------------|----18----------------------------20-------------------|-20------------------------------------16~---18~---20~-|-------------------------------------------------------|
2:01-2:03|----11-10-----------------------------11-10------------------10/11/10-||----------13-11-----------------------------13-11---------------------||-12-------------13-12-9----9-12-13-12-------------13-12-9-------------||------------------------10--------------------------------10----------||----------------------------------------------------------------------||----------------------------------------------------------------------|
2:04-2:07|----11-10-----------------------------11-10--------------------8/10/8-||----------13-11-----------------------------13-11---------------------||-12-------------13-12-9----9-12-13-12-------------13-12-9-------------||------------------------10--------------------------------10----------||----------------------------------------------------------------------||----------------------------------------------------------------------|
2:07-2:09|----11-10-----------------------------11-10------------------10/11/10-||----------13-11-----------------------------13-11---------------------||-12-------------13-12-9----9-12-13-12-------------13-12-9-------------||------------------------10--------------------------------10----------||----------------------------------------------------------------------||----------------------------------------------------------------------|
2:10-2:13|----11----13-10-------13-----15----------16-15-13----------------------------||----------------11--------------16-13-12----------16-15-13-12----------------||-12----12----------13-----13----------------------------------13-12----------||--------------------------------------------------------------------15-13-12-||-----------------------------------------------------------------------------||-----------------------------------------------------------------------------|
2:14-2:15|---------------||---------------||---------------||---------------||---------------||-3-4-5---5-7-9-|
* * * * * *2:15-2:22|----------------------------------------------------------12-9--------------||---------------------------------------------------------------11-----------||-----5--------------3-----------------------5-----6---------------12-9------||-3-----6-3------3-----6-3----------------3----6-3---5--3---------------11-8-||-3---------3----3------------------------3-------------4--------------------||-3-----------6--3---------3-4-5---5-7-9--3-------------3--------------------|
* * * * * *2:22-2:28|-----------------------------------------------------------------------22b--||----------------------------------------------------------------------------||-----5--------------3-----------------------5-----6--------18---------------||-3-----6-3------3-----6-3----------------3----6-3---5--3------20-17---------||-3---------3----3------------------------3-------------4------------19------||-3-----------6--3---------3-4-5---5-7-9--3-------------3--------------------|
* * * * * *2:28-2:34|---------------------------------------------------(6)----12-9--------------||------------(4)------------------------------------------------11-----------||-----5--------------3-----------------------5-----6---------------12-9------||-3-----6-3------3-----6-3----------------3----6-3------3---------------11-8-||-3---------0----3------------------------3-------------4--------------------||-3--------------3---------3-4-5---5-7-9--3-------------3--------------------|
* * * * * *2:35-2:44|---------------------------------------------------(6)----12-9--------------||------------(4)-----------------------------4-----6------------11-----------||-----5--------------3-------------------------5-6-----------------12-9------||-3-----6-3------3-----6-3----------------3-------------3---------------11-8-||-3---------3----3------------------------3-------------4--------------------||-3--------------3---------3-4-5---5-7-9--3-------------3--------------------|
* * * * * *-12-9----------------------------------------|------11-------------------------------------|---------12-9--------------------------------|--------------11-8------11--------------3~~--|-------------------10-7----10-7------10-3~~--|--------------------------------11-8----3~~--|
2:50-3:04|----------------------------------| |-4~----||----------------------------------| |--6~---||----------------------------------|x4|---7~--||-000--000--000--00-00--00-00--000-| |----4~-||-000--000--000--00-00--00-00--000-| |-------||-000--000--000--00-00--00-00--000-| |-------|
*** *** *** ** ** ** ** ***3:05-3:17|-------1st and 3rd times----------|---------2nd and 4th times----------||----------------------------------|------------------------------------||----------------------------------|------------------------------------|X2|-000--000--000--00-00--00-00--000-|-0-0-0-0-0-0-000--00-00--00-00--000-||-000--000--000--00-00--00-00--000-|-0-0-0-0-0-0-000--00-00--00-00--000-||-000--000--000--00-00--00-00--000-|-0-0-0-0-0-0-000--00-00--00-00--000-|
*** *** *** ** ** ** ** *** * * * * * * *** ** ** ** ** ***3:18-3:21|-----------------------------------------||--------------------------------------6~-||-----------------------------------------||-----------------------------333-333-----||---------------0h3h7--0h5h9--333-333-----||-0h3h7--0h5h9----------------333-333-----|
3:21-3:26|-------13----13-16-20-18-16-18-15-18-14-18-12-||----------13----------------------------------||----13----------------------------------------||-15-------------------------------------------||----------------------------------------------||----------------------------------------------|
|-------------13-16-13-16-18-15----------------||----------14-------------------16-------------||-------13-------------------------15----------||-11-15-------------------------------17-------||----------------------------------------18-15-||----------------------------------------------|
3:26-3:30|-------13----13-16-20-18-16-18-15-18-14-18-12-||----------13----------------------------------||----13----------------------------------------||-15-------------------------------------------||----------------------------------------------||----------------------------------------------|
|-------------13-16-18-20-18-16-15----------||----------14----------------------16-------||-------13----------------------------15----||-11-15---------------------------------17--||-------------------------------------------||-------------------------------------------|
3:30-3:42|--16-20-16----------------15-18-15----------||-----------16----------16----------16-------||--------------17----17----------------15----||-----------------18----------------------17-||--------------------------------------------||--------------------------------------------|
-13-16-13----------------11-15-11----------|----------13----------13----------11-------|-------------13----13----------------12----|----------------15----------------------13-|-------------------------------------------|-------------------------------------------|
--9-13--9----------------10-13-10----------|-----------9-----------9----------11-------|-------------10----10----------------12----|----------------11----------------------14-|-------------------------------------------|-------------------------------------------|
-11-15-11----------------12-15-12----------|----------11----------11----------11-------|-------------12----12----------------12----|----------------13----------------------14-|-------------------------------------------|-------------------------------------------|
-13-16-13----------------13-17-20-17-------------------------|----------13----------13-------------18----------------------|-------------14----14-------------------17-------------------|----------------15-------------------------19-17-12-10-------|-------------------------------------------------------12-10-|-------------------------------------------------------------|
3:42-3:54|----------------------------------------------------------------------||----------------------------------------------------------------------||-1010101010101010-12121212-14141414-----------------------------------||-1010101010101010-12121212-14141414--8-8-8-8-8-8-8-8-1010101010101010-||--8-8-8-8-8-8-8-8-10101010-12121212--8-8-8-8-8-8-8-8-1010101010101010-||-------------------------------------8-8-8-8-8-8-8-8-1010101010101010-|
|----------------------------------------------------------------------||----------------------------------------------------------------------||-1010101010101010--9-9-9-9--7-7-7-7-----------------------------------||-1010101010101010--9-9-9-9--7-7-7-7--8-8-8-8-8-8-8-8-1010101010101010-||--8-8-8-8-8-8-8-8--7-7-7-7--5-5-5-5--8-8-8-8-8-8-8-8-1010101010101010-||-------------------------------------8-8-8-8-8-8-8-8-1010101010101010-|
3:54-4:00|----------------------------------------------------------------------||-----------------------------------------------------------6-/8-6-5---||-1010101010101010--10101010101010---7-7----/5---5-----5-5-----------5-||-1010101010101010--10101010101010---7-7--7----8---5---5-5-------------||--8-8-8-8-8-8-8-8---7-7-7-7-7-7-7---5-5---------------3-3-------------||----------------------------------------------------------------------|
* * * * * * * * * * * * * *4:00-4:05|----------------------------------------------------------------------||----------------------------------------------------------------------||-1010101010101010--10101010101010---7-7----/5---5-----55555555--------||-1010101010101010--10101010101010---7-7--7----8---5---55555555-3------||--8-8-8-8-8-8-8-8---7-7-7-7-7-7-7---5-5---------------33333333-3------||---------------------------------------------------------------3------|
* * * * * * * * * * * * ******** ***4:06-4:18|----------------------------------------------------||----------------------------------------------------||--10-10-14-12/10-9-12-10-----7-10-10--7--5-10-12~---||---x--x--x--x--x-x--x--x-----x--x--x--x--x--x--x~---||---8--8-12-10/-8-7-10--8-----5--8--8--5--3--8-10~---||----------------------------------------------------|
|----------------------------------------------------||----------------------------------------------------||--10-10-14-12/10-9-12-10--5--7-10-10-12-14-15-12~---||---x--x--x--x--x-x--x--x--x--x--x--x--x--x--x--x~---||---8--8-12-10/-8-7-10--8--3--5--8--8-10-12-13-10~---||----------------------------------------------------|
4:18-4:30|----------------------------------------------------||----------------------------------------------------||--10-10-14-12/10-9-12-10-----7-10-10--7--5-10-12~---||---x--x--x--x--x-x--x--x-----x--x--x--x--x--x--x~---||---8--8-12-10/-8-7-10--8-----5--8--8--5--3--8-10~---||----------------------------------------------------|
|------------------------------------------------------||------------------------------------------------------||--10-10-14-12/10-9-12-10--5--7-10-10-1514-12--9-10----||---x--x--x--x--x-x--x--x--x--x--x--x--x-x--x--x--x----||---8--8-12-10/-8-7-10--8--3--5--7--8-1312-10--7--8----||------------------------------------------------------|
4:31-4:37|-----------------------------------------------------------||-----------------------------------------------------------||--12-12-16-14/1211-14-12-----9-12-12--9--7-12-14----12-----||---x--x--x--x--x-x--x--x-----x-x--x---x--x-x--x------x-----||--10-10-14-12/10-9-12-10-----7-10-10--7--5-10-12----10-----||-----------------------------------------------------------|
4:43-End|----------------------------------------------------||----------------------------------------------------||--10-10-14-12/10-9-12-10-----7-10-10--7--5-10-12~---||---x--x--x--x--x-x--x--x-----x--x--x--x--x--x--x~---||---8--8-12-10/-8-7-10--8-----5--8--8--5--3--8-10~---||----------------------------------------------------|
Tap to rate this tab
 
# A B C D E F G H I J K L M N O P Q R S T U V W X Y Z