Psychostick – Largiloquent Dithyramb tab

we'll see how this goes.
one of the most metal songs ever!!
you'll have to figure out a lot of the rythms.

Largiloquent Dithyramb
Psychostick
We Couldn't Think Of a Title

Drop C#

Lyrics:
Dog Food
Taste Good
With Cheese!!

------------------------------|------------------------------|------------------------------|--------------------------6---|0--0--0--1--1-2-2-333444556---|0--0--0--1--1-2-2-333444556---|. . . . . . . ........
----------------------| |----|----------------------| |----|----------------------| |----|----------------------|x7|7---|7-7-7-x7-7-x7-7-3-3-3-| |7---|7-7-7-x7-7-x7-7-3-3-3-| |7---|(Make the notes . . .very staccato 1-4)
1. 2. 3. 4.-----------------------------------||---||---||-----|-----------------------------------||---||---||-----|-----------------------------------||---||---||-----|-----------------------------------||-0-||---||-0---|777777776666-6-6-3-3--3--3-1-3-1---||-0-||---||-0---|777777776666-6-6-3-3--3--3-1-3-1---||-0-||-\-||-0---|............ . . . . . . . . .
----------------------------------------------------------------------|----------------------------------------------------------------------|----------------------------------------------------------------------|----------------------------------------------------------------------|1-0-0-1-0-0----1-0-0-1-0-0-----1-0-0-1-0-0-------1-0-0-1-0-0----------|1-0-0-1-0-0-3--1-0-0-1-0-0-3-4-1-0-0-1-0-0-3-4-5-1-0-0-1-0-0-3-4-5-6--|. . . . . . . . . . . . . . . . . . . . . . . .
---------------------------------------------------------------------------|---------------------------------------------------------------------------|---------------------------------------------------------------------------|---------------------------------------------------------------------------|7-1-0-0-1-0-0-----1-0-0-1-0-0-------1-0-0-1-0-0----------------------------|7-1-0-0-1-0-0-3-4-1-0-0-1-0-0-3-4-5-1-0-0-1-0-0-3-4-5-6-7-8-9-10-11-12-13--| . . . . . . . . . . . . . . . . . .
-----------------------------------------------|-----------------------------------------------|------------------11-10-------------------3--6-|0--1--4--3--0--1--11-10-0--1--4--3--0--1--3--6-|0--1--4--3--0--1--9--8--0--1--4--3--0--1--1--4-|0--1--4--3--0--1--------0--1--4--3--0--1-------|
-------------------------------------------------------------|-------------------------------------------------------------|-------------------------------------------------------------|-------------------------------------------------------------|000-000----000-000-000----000-000-000----000-000-000---------|x2000-000-60-000-000-000-60-000-000-000-60-000-000-000-60-30-3-|... ... ... ... ... ... ... ... ... ... ...
------------------------------------------------------------|------------------------------------------------------------|------------------------------------------------------------|------------------------------------------------------------|000----000----000----000----0---0---0---0---0---0-----------|000-60-000-60-000-60-000-60-0-6-0-6-0-6-0-6-0-6-0-6-6-6-6-6-|... ... ... ... . . . . . .
----------------------| |----|----------------------| |----|----------------------| |----|----------------------|x8|0---|7-7-7-x7-7-x7-7-3-3-3-| |0---|7-7-7-x7-7-x7-7-3-3-3-| |0---|
. . . . . . . . . .palm mute 1-4no palm mutes 5-8 x2 x2 x2 x2|---------| |------------||------------||-----------||-----------||---------| |------------||------------||-----------||-----------||---------|x4|------------||------------||-----------||-----------||---------| |------------||------------||-----------||-----------||0-1-2-1-0| |0-1-2-3-2-1-||3-4-5-6-5-4-||4-5-6-7-6-5||5-6-7-8-7-6||0-1-2-1-0| |0-1-2-3-2-1-||3-4-5-6-5-4-||4-5-6-7-6-5||5-6-7-8-7-6| . . . . . . . . . . . . . . . . . . . . . . . . . . . . .
x2 x2|-----------||------------||---------------------------------------------------||-----------||------------||---------------------------------------------------||-----------||------------||---------------------------------------------------||-----------||------------||---------------------------------------------------||6-7-8-9-8-7||7-8-9-10-9-8||7-9-8-7-6-8-7-6-5-7-6-5-4-6-5-4-3-5-4-3-2-4-3-2-1--||6-7-8-9-8-7||7-8-9-10-9-8||7-9-8-7-6-8-7-6-5-7-6-5-4-6-5-4-3-5-4-3-2-4-3-2-1--| . . . . . . . . . . . . . . . . . . . . . . . . . . . . . . . . . . . . .
----------------------------------------------------|----------------------------------------------------|---7---8---9---8h9p8h9p8h9p8--11--12--13--14-15-16--|---6---7---8------------------10--11--12--13-14-15--|---5---6---7------------------9---10--11--12-13-14--|----------------------------------------------------|
-----------------------|-----------------------|-----------------------|------1--0--------1--0-|x20--0--1--0--0000--1--0-|0--0--1--0--0000--1--0-|. . ....
---------------------|---------------------|---------------------|---------------------|x30-0-------000000-----|0-0-1bp0--0000001bp0-|. . ......
-----------------------|-----------------------|-----------------------|------1--0--------1--0-|x40--0--1--0--0000--1--0-|0--0--1--0--0000--1--0-|. . ....
slower-----------------------|-----------------------|-----------------------|------1--0--------1--0-|x30--0--1--0--0000--1--0-|0--0--1--0--0000--1--0-|. . ....
slowest-----------------------|-----------------------|-----------------------|------1--0--------1--0-|x20--0--1--0--0000--1--0-|0--0--1--0--0000--1--0-|. . ....
--------------------- ---|--------------------- ---|--------------------- ---|---------------------x3-0-|0-0-------000000----- -0-|0-0-1bp0--0000001bp0- -0-|. . ......
Hello? lol
Please rate this tab:
x1.0