Puddle Of Mudd - Uno Mass tab

Uno Mass - puddle of mudd
tabbed by gian calipa
tunning:E
key:
.= palm mute


Intro|-------------------------------------||-------------------------------------||-------------------------------------||---77-----55----888------------------||---55--77-33-55-666------------------||-------55----33----------------------|
|-------------------------------------||-------------------------------------||-------------------------------------||---77-----55-------------------------||---55--77-33-55-888------------------||-------55----33-666------------------|
|-------------------------------------||-------------------------------------||-------------------------------------||---77-----55----888------------------||---55--77-33-55-666------------------||-------55----33----------------------|
|-------------------------------------||-------------------------------------||-------------------------------------||---77-----55-------------------------||---55--77-33-55-888------------------||-------55----33-666------------------|
Verse|-------------------------------||-------------------------------||-------------------------------||---77-----55X-X-X-X-X-X--------||---55--77-33X-X-X-X-X-X--------||-------55----------------------|
|-------------------------------------------||-------------------------------------------||-------------------------------------------||---77-----55-X-X-X-X-X-X-------------------||---55--77-33-X-X-X-X-X-X-888---------------||-------55----------------666---------------|
chorus|-------------------------------------||-------------------------------------||-------------------------------------||---77-----55----888------------------||---55--77-33-55-666------------------||-------55----33----------------------|
|-------------------------------------||-------------------------------------||-------------------------------------||---77-----55-------------------------||---55--77-33-55-888------------------||-------55----33-666------------------|
|-------------------------------------||-------------------------------------||-------------------------------------||---77-----55----888------------------||---55--77-33-55-666------------------||-------55----33----------------------|
|-------------------------------------||-------------------------------------||-------------------------------------||---77-----55-------------------------||---55--77-33-55-888------------------||-------55----33-666------------------|
im stuck on part of the bridge lead up thing if anyone could help me with it please i know this part
|-----------------------------------------------------------------||-----------------------------------------------------------------||-----------------------------------------------------------------||--88888888-10-10-10-10-10-10-10-10-12-12-12-12-12-12-12-12-------||--66666666-8--8--8--8--8--8--8--8--10-10-10-10-10-10-10-10-------||-----------------------------------------------------------------|
guitar 1|-------------------------------------||-------------------------------------||-------------------------------------||---77-----55----888------------------||---55--77-33-55-666------------------||-------55----33----------------------| .. .. .. .. ...
|-------------------------------------||-------------------------------------||-------------------------------------||---77-----55-------------------------||---55--77-33-55-888------------------||-------55----33-666------------------| .. .. .. .. ...
|-------------------------------------||-------------------------------------||-------------------------------------||---77-----55----888------------------||---55--77-33-55-666------------------||-------55----33----------------------| .. .. .. .. ...
|-------------------------------------||-------------------------------------||-------------------------------------||---77-----55-------------------------||---55--77-33-55-888------------------||-------55----33-666------------------| .. .. .. .. ...
|-------------------------------------||-------------------------------------||-------------------------------------||---77-----55----888------------------||---55--77-33-55-666------------------||-------55----33----------------------| .. .. .. .. ...
|-------------------------------------||-------------------------------------||-------------------------------------||---77-----55-------------------------||---55--77-33-55-888------------------||-------55----33-666------------------| .. .. .. .. ...
guitar 2
|--------------------------------------------------||--------------------------------------------------||--14-14-14-12-12-12-11-11-11----------------------||-----------------------------10-10-10-12-12-12----||--------------------------------------------------||--------------------------------------------------|start playing this after the second time of the riff above and play it four times
chorus
|-------------------------------------||-------------------------------------||-------------------------------------||---77-----55----888------------------||---55--77-33-55-666------------------||-------55----33----------------------|
|-------------------------------------||-------------------------------------||-------------------------------------||---77-----55-------------------------||---55--77-33-55-888------------------||-------55----33-666------------------|
|-------------------------------------||-------------------------------------||-------------------------------------||---77-----55----888------------------||---55--77-33-55-666------------------||-------55----33----------------------|
|-------------------------------------||-------------------------------------||-------------------------------------||---77-----55-------------------------||---55--77-33-55-888------------------||-------55----33-666------------------|
and keep playing as many times as needed if i messed anything up please tell me :D
Tap to rate this tab
 
# A B C D E F G H I J K L M N O P Q R S T U V W X Y Z