Pulp – I Am A Man tab

Pulp

I am a Man

By Chochos Valdez
(Hector Barrera Villa Zevallos)


Normal tuning


First the chords and then the arrangements.


Intro

-----------------------------------------------------|-----------------------------------------------------|-----------------------------------------------------| x2---6---6--9-6-6--9-(x10)-----------------------------|---7---7--7-7-7--7-(x10)-----------------------------|-----------------------------------------------------|
E A B E A B E A B E Laid here with the advertising sliding past my eyes A B E Like cartoons from other people's lives A B E A B I start to wonder what it takes to be a man uh uh uhhhhhhhhhhh E A B E A Well I learned to drink and I learned to smoke and I learned to tell a dirty B E joke A B E B If that's all there is then there's no point for me he he heeeey Chorus: E A So please can I ask just why we're alive? B Cos all that you do seems such a waste of time A7 E And if you hang around too long you'll be a ma a a a a a a a an A Tell me bout it, you can get up to a hundred and ten B You've nowhere to go but you'll go there again A7 E And nothing ever makes no difference to a ma a a a a a a a an A B E So you stumble into town and hold your stomach in A B E Show them what you've got though they've seen everything A B E A B Yeah you're a beauty but they've seen your type before oh oh ohhhhhhhhh E A B E A B You've got no need but still you want, so go and book that restauraaaaant E A B E B The wine will flow and then you'll just fly away eh eh eh eh eh he yeh eh eh Chorus: E A So please can I ask just why we're alive? B Cos all that you do seems such a waste of time A7 E And if you hang around too long you'll be a ma a a a a a a a an A Tell me bout it, you can get up to a hundred and ten B You've nowhere to go but you'll go there again A7 E And nothing ever makes no difference to a ma a a a a a a a an Chorus: E A So please can I ask just why we're alive? B Cos all that you do seems such a waste of time A7 E And if you hang around too long you'll be a ma a a a a a a a an A Tell me bout it, you can get up to a hundred and ten B You've nowhere to go but you'll go there again A7 E And nothing ever makes no difference to a ma a a a a a a a an A7 E to a ma a a a a a a a an A7 E to a ma a a a a a a a an A7 E uh uh uh uh uh uh uh uh uh A7 E uh uh uh uh uh uh uh uh uh A7 G7 F#7 E to a ma a a an That's what I am
0:42-------------------12----------------12--------------|---------------7h9---------------7h9-----------------|-----------------------------------------------------|-----------------------------------------------------|-----------------------------------------------------|-----------------------------------------------------|
-------------------12----------------12--------------|---------------7h9---------------7h9-----------------|-----------------------------------------------------|-----------------------------------------------------|-----------------------------------------------------|-----------------------------------------------------|
1:23-----------------------------------------------------|--7b--5-----7b--5-----7b--5-----7b--5----------------|-----------------------------------------------------|-----------------------------------------------------|-----------------------------------------------------|-----------------------------------------------------|
-----------------------------------------------------|--7b--5-----7b--5-----7b--5-----7b--5----5~~~--------|-----------------------------------------------------|-----------------------------------------------------|-----------------------------------------------------|-----------------------------------------------------|
2:01-------------------12~----------------12~------------|----------12---7h9----------12---7h9-----------------|-----------------------------------------------------|-----------------------------------------------------|-----------------------------------------------------|-----------------------------------------------------|
-------------------12~----------------12~------------|----------12---7h9----------12---7h9-----------------|-----------------------------------------------------|-----------------------------------------------------|-----------------------------------------------------|-----------------------------------------------------|
2:42-----------------------------------------------------|--7b--5-----7b--5-----7b--5-----7b--5----------------|-----------------------------------------------------|-----------------------------------------------------|-----------------------------------------------------|-----------------------------------------------------|
-----------------------------------------------------|--7b--5-----7b--5-----7b--5-----7b--5----5~~~--------|-----------------------------------------------------|-----------------------------------------------------|-----------------------------------------------------|-----------------------------------------------------|
3:02-----------------------------------------------------|-----------------------------------------------------|-----------------------------------------------------|-----------------------------------------------------|---9\7-7-7-7-7-7-7-7-7~~-----------------------------|-----------------------------------------------------|
3:05-----------------------------------------------------|-----------------------------------------------------|-----------------------------------------------------| x 4-----------------------------------------------------|-----------------------------------------------------|-0-0/7-7-7-7\5-5-5/10-10-10-10\0---------------------|
Guitar 13:24--12-------------------------------------------------|--12-12(x19)-----------------------------------------|-----------------------------------------------------| x 4-----------------------------------------------------|-----------------------------------------------------|-----------------------------------------------------|
Guitar 23:28-----------------------------------------------------|-7-7b--5-------7-7b--5--------7-7b--5----------------|-----------------------------------------------------|-----------------------------------------------------|-----------------------------------------------------|-----------------------------------------------------|
4:05-----------------------------------------------------|--7b-5--7b-5--7b-5--7b-5--7b-5-----------------------|-----------------------------------------------------|-----------------------------------------------------|-----------------------------------------------------|-----------------------------------------------------|
-----------------------------------------------------|--7b--5-----7b--5-----7b--5-----7b--5----5~~~--------|-----------------------------------------------------|-----------------------------------------------------|-----------------------------------------------------|-----------------------------------------------------|
4:23-----------------------------------------------------|-----7/9---------------------------------------------|-----------------------------------------------------|-----------------------------------------------------|-----------------------------------------------------|-----------------------------------------------------|
4:28-----------------------------------------------------|-----7/9---------------------------------------------|-----------------------------------------------------|-----------------------------------------------------|-----------------------------------------------------|-----------------------------------------------------|
4:33-----------------------------------------------------|-----7/9---------------------------------------------|-----------------------------------------------------|-----------------------------------------------------|-----------------------------------------------------|-----------------------------------------------------|
4:38-----------------------------------------------------|-----7/9---------------------------------------------|-----------------------------------------------------|-----------------------------------------------------|-----------------------------------------------------|-----------------------------------------------------|
It sounds good to me. Corrections or comments to hectorbarrerav@hotmail.com Oraleeeeeeeeeeeeeee!
Please rate this tab:
x1.0