Pure Evil - Primary Masters tab

Pure Evil - "The Primary Masters"

This is the complete Bass tab for the greatest Bass-Solo ever!
If you can play it, you?re the best! And when you play it: Just play it fast, VERY Fast!
This is played on a Warwick custom Bass: 6 Strings, 28 Frets & a Tremolo. And you will need them All!
But this doesn?t sound good without a Guitar, so I?ll give you the Guitar tabs, too.
The guitar is also a custom-Model: 7 Strings, 28 Frets and a Tremolo.
Here are the Chords:

B5 D5 E5 C5 D5| G5 E5| A5 E5|| A5| D5| A5|| F#5 G5| C#5 C5#| B5|E||-------------------------------------------------------------------|B||----------5--7----------2-----------3------------------------------|G||----------5--7---5--2---2--9----2---2---14-------------------------|D||----------5--7---5--2---2--9----2---0---14---4---5---6--------9----|A||-2--5--7--3--5---5--2---0--7----0-------12---4---5---6---4----9----|E||-2--5--7---------3--0------------------------2---3---4---4----7----|B||-0--3--5-------------------------------------------------2---------|
I wrote them over the Bass Line, so you (or better a friend) can play along.Then there are some Riffs. Here they are:Riff A:|--------------------------------|------------------------------|------------------------------||--------------------------------|------------------------------|------------------------------||--------------------------------|------------------------------|------------------------------||--------------------------------|------------------------------|------------------------------||--------------------------------|------------------------------|------------------------------||-------x-x-2--x-x-2--x-x-2--3-5-|--4--x-x-4--x-x-4--x-x-4--3-7-|--2--x-x-2--x-x-2--x-x-2--x-x-||-------x-x-0--x-x-0--x-x-0--1-3-|--2--x-x-2--x-x-2--x-x-2--5-5-|--0--x-x-0--x-x-0--x-x-0--x-x-|This is the Galopp-Riff. Play it in time with Bass & Drums.
Riff B: Simply slide to the high e28, Bend it to the max and release it again.That?s it!
Riff C:|--20h19h18h17----20b-17--20--19-\21--20-||--------------19------------------------||----------------------------------------||----------------------------------------||----------------------------------------||----------------------------------------||----------------------------------------|The Guitar-Solo. Play this Riff 3 times.
Riff D:--------------------|--------------------|--14b---------------|--15b---------------|--18b---------------|--12b---------------|--12b---------------|--15b---------------|--------------------|--------------------|--------------------|--------------------|--------------------|--------------------|--------------------|--------------------|--------------------|--------------------|--------------------|--------------------|--------------------|
--17b---------------|--12b---------------|--15b---------------|--15b---------------|--------------------|--------------------|--------------------|--------------------|--------------------|--------------------|--------------------|--------------------|--------------------|--------------------|--------------------|--------------------|--------------------|--------------------|--------------------|--------------------|--------------------|
--20b---------------|--25b---------------|--27b---------------|--------------------|--------------------|--------------------|--------------------|--------------------|--------------------|--------------------|--------------------|--------------------|--------------------|--------------------|--------------------|--------------------|--------------------|--------------------|--------------------|--------------------|--------------------|
--28b---------------|--------------------|--------------------|--------------------|--------------------|--------------------|--------------------|Vibrate them!
OK, and now the Bass Tab: All notes are slapped, if it?s not shown another way! If it?s low/high low/high, use slap-transfer.
B5 D5C||-----------------------------|-------13----12---------------------|G||-----------------------------|-------------------11---10----------|D||-----------------------------|------------------------------------|A||-----------------------------|------------------------------------|E||----12-13--------------------|----12----11------------------------|B||--0-------11-10-9-0----------|--0-------------10----9----7/1------|
E5 D5----------------------------------|--------------------------------------|-----------------------------------|--------------------------------------|----------------------------------|--------------------------------------|-------------19-17-15/3-----------|-------14----13----12---10---7--------|----12-15-17------------4-0-------|----12----11----10----8----5---0------|--0-------------------------------|--0------------------------------3----|
B5 D5----------------------|----------------5---4---3--------|----------------------|---------------------------------|----------------------|---------------------------------|----------------------|----12-10-8-5-4---3---2---1-0----|----12/3trem----------|--0------------------------------|--0-------------------|---------------------------------|
C5 D5| G5 E5|--0----------------2------------|------3----------------0--------|-----1-----------1----3---------|----3----0-----------0----0-----|-------0-------0--------2-------|--2--------0-------0--------1---|---------2---2------------0---0-|-------------0---0------------2-|-----------3----------------0---|---------------2----------------|--------------------------------|--------------------------------|
A5 E5||----------0--------------------|----------------------------------|--------0----2-----------2-3---|------7-----6-----5-----5---------|------1--------2-------2-------|----------------------------------|----2------------2---2---------|--------------------------3-0-----|--2----------------0-------2---|------------------------------0-3-|-------------------------------|--0-0---0-0---0-0---0-0-----------|
B5 Riff A----------------------|--------------------------------|----------------------|--------------------------------|----------------------|--------------------------------|----------------------|--------------------------------|----------------------|--------------------------------|--0-3-0-1trem---------|--10s0-0-0-0--0-0-0--0-0-0--1-3-|
------------------------------|------------------------------|------------------------------|------------------------------|------------------------------|------------------------------|------------------------------|------------------------------|------------------------------|------------------------------|--2--2-2-2--2-2-2--2-2-2--3-5-|--0--0-0-0--0-0-0--0-0-0--0-0-|
B5 E5 A5| D5|------------------------------|--------------------------4h6-|------------------------------|-----------4--6---------------|--------------------------4/6-|-----------------0-1-2-3------|-----------4--6---------------|--0-1-2-3---------------------|-----------------0-1-2-3------|------------------------------|--0-1-2-3---------------------|------------------------------|
A5| E5 Riff B---------------------------------|------------------|--4-6-3-5-2-4-1-3-0--------------|------------------|--------------------0------------|------------------|----------------------0----------|------------------|------------------------0--------|------------------|--------------------------0-1h3tr|------------------|
Riff C-----------------------------|----------------------------------|----3----2----2--------------|----------------------------------|------------------------3----|--2----1--------------------------|-----------------------------|----------------------------------|--2----1----0----0-----------|-------------------12h13-12h13h12-|-------------------0--2----1-|-----0----0--0--0-----------------|
B5 A5||------------------------------|-----------------10-20-25h26-20-15h16-15/28h-27-|------------------------------|--------------10--------------------------------|------------------------------|-----------10-----------------------------------|------------------------------|--------10--------------------------------------|--10h12h10-8-10-8-0-6trem-----|-----10-----------------------------------------|------------------------------|--10--------------------------------------------|
B5 D5-----------------10-5-4h5---------------|--------------10----------6-------------|-----------10---------------7-----------|--------10--------------------4/9-8-----|-----10-----------------------------6h8-|--10------------------------------------|
B5 A5||-----------------10-20-25h26-20-15h16-15/28h-27-|--------------10--------------------------------|-----------10-----------------------------------|--------10--------------------------------------|-----10-----------------------------------------|--10--------------------------------------------|
B5-----------------10------------------------|--------------10----10---------------------|-----------10----------10------------------|--------10----------------10---------------|-----10----------------------10------------|--10----------------------------10-9-5/7tr.|
Riff D-------------------------------------------------|-------------------------------------------------|----12h13h12h10h12h13h12h10h12h13h12h10h12h13h12-|-------------------------------------------------|-------------------------------------------------|--0----------------------------------------------|
-------------------------------------------------|-------------------------------------------------|----15h16h15h13h15h16h15h13h15h16h15h13h15h16h15-|-------------------------------------------------|-------------------------------------------------|--0----------------------------------------------|
-------------------------------------------------|----12h13h12h10h12h13h12h10h12h13h12h10h12h13h12-|-------------------------------------------------|-------------------------------------------------|--0----------------------------------------------|-------------------------------------------------|
-------------------------------------------------|----15h16h15h13h15h16h15h13h15h16h15h13h15h16h15-|-------------------------------------------------|-------------------------------------------------|--0----------------------------------------------|-------------------------------------------------|
----12h13h12h10h12h13h12h10h12h13h12h10h12h13h12-|-------------------------------------------------|-------------------------------------------------|--0----------------------------------------------|-------------------------------------------------|-------------------------------------------------|
----15h16h15h13h15h16h15h13h15h16h15h13h15h16h15-|-------------------------------------------------|-------------------------------------------------|--0----------------------------------------------|-------------------------------------------------|-------------------------------------------------|
----20h21h20h18h20h21h20h18h20h21h20h18h20h21h20-|-------------------------------------------------|--0----------------------------------------------|-------------------------------------------------|-------------------------------------------------|-------------------------------------------------|
----25h26h25h23h25h26h25h23h25h26h25h23h25h26h25-|-------------------------------------------------|--0----------------------------------------------|-------------------------------------------------|-------------------------------------------------|-------------------------------------------------|
----27h28h27h25h27h28h27h25h27h28h27h25h27h28h27-|--25-27-28trem----------|--0----------------------------------------------|------------------------|-------------------------------------------------|------------------------|-------------------------------------------------|------------------------|-------------------------------------------------|------------------------|-------------------------------------------------|------------------------|
B5--0--28\1trem|-------------|-------------|-------------|-------------|-------------|
E5 F#5 G5| E5--------------------------------|--------------------------------|--------------------------------|--------------------------------|--------------------------------|--------------------------------|--------------------------3h5h3-|--------------------------------|----0--x-x-x-3-5--x-x-x-x-------|--3h5h3-------------0---x-7h9-5-|--1-----------------------------|--------3h5h3-1h2-1-------------|
A5| C#5 B5------------------------------------|---------------------------------------|------------------------------------|---------------------------------------|------------------------------------|---------------------------------------|--5-9-7-3-5-1-----------------------|---------------------------------------|--------------4-6-2-0---0-5-7-9-5/0-|----12-10-12---10-8-10---8-5-8---1-5-1-|----------------------0-------------|--0----------0---------0-------0-------|
E5 B5-------------------------------------------|-----------------------------------|-------------------------------------------|-----------------------------------|-------------------------------------------|-----------------------------------|-------13------12------11------10------9---|-----8-----------------------------|----12------12------12------12------12-----|--12-------------------------------|--0-------0-------0-------0-------0------0-|-------0-1h3-1-3-2-3-0-3-5-3-0-1-2-|
D5 C#5|----------------------------------|----------------------------------|----------------------------------|----------------------------------|----------------------------------|----------------------------------|----------------------------------|----------------------------------|----------------------------------|--------------5---------7---------|--3-5-7-9-7-5-3-1-2-3-0-2-0-3-0-1-|--0-1h2h3-0-3---5-0-3h5---9-5-3/7-|
F#5 B5|-------------------------------------|----------------------10-12-8-5-7h9--|--------------9/15-14----------------|----------9-7------------------------|----7/9-8----------------------------|--5----------------------------------|
B5trem----------------------------------------------------------|--5-28t5-5-27t5-5-26t5-5-25t5-5-24t5-5-23t5-5-22t5-5-21t5-|----------------------------------------------------------|----------------------------------------------------------|----------------------------------------------------------|----------------------------------------------------------|
A5| D5 A5| D5-----------------------------|-----------------------------|-----------------------------|-----------------------------|-----------------------------|-----------------------------|-----------------------------|-----------------------------|-----------------------------|-----------------------------|--0h-12--13--12--0h-5--6--5--|--0h-12--13--12--0h-5--6--5--|
A5| D5 A5|-------------------------|----------------------|-------------------------|-------------------------|----------------------|-------------------------|-------------------------|----------------------|-------------------------|-------------------------|----------------------|-------------------------|-------------------------|----------------------|-------------------------|--0----12----13----12----|--0----5----6----5----|--0----12----13----12----|
D5 A5|----------------------|---------------------|----------------------|----------------------|---------------------|----------------------|----------------------|---------------------|----------------------|----------------------|---------------------|----------------------|----------------------|---------------------|----------------------|--0----5----6----5----|--0--------12--------|--13--------12--------|
D5 A5|--------------------|--------------------|---------------------|--------------------|--------------------|---------------------|--------------------|--------------------|---------------------|--------------------|--------------------|---------------------|--------------------|--------------------|---------------------|--0--------5--------|--6--------5--------|--0--------12--------|
D5----------------------|--------------------|--------------------|----------------------|--------------------|--------------------|----------------------|--------------------|--------------------|----------------------|--------------------|--------------------|----------------------|--------------------|--------------------|--13--------12--------|--0--------5--------|--6--------5--------|
A5|-------------------|--------------------|--------------------|-------------------|--------------------|--------------------|-------------------|--------------------|--------------------|-------------------|--------------------|--------------------|-------------------|--------------------|--------------------|--0----------------|--12----------------|--13----------------|
D5--------------------|-------------------|-------------------|--------------------|-------------------|-------------------|--------------------|-------------------|-------------------|--------------------|-------------------|-------------------|--------------------|-------------------|-------------------|--12----------------|--0----------------|--5----------------|
-------------------|-------------------|-------------------|-------------------|-------------------|-------------------|-------------------|-------------------|-------------------|-------------------|-------------------|-------------------|-------------------|-------------------|-------------------|--6----------------|--5----------------|--0----------------|
A5|--------------------|--------------------|--------------------|--------------------|--------------------|--------------------|--------------------|--------------------|--------------------|--------------------|--------------------|--------------------|--------------------|--------------------|--------------------|--12----------------|--13----------------|--12----------------|
D5-------------------|-------------------|-------------------|-------------------|-------------------|-------------------|-------------------|-------------------|-------------------|-------------------|-------------------|-------------------|-------------------|-------------------|-------------------|-------------------|-------------------|-------------------|-------------------|-------------------|--0----------------|--5----------------|--6----------------|--5----------------|
A5| D5---------------------|----------------------|--------------------|---------------------|----------------------|--------------------|---------------------|----------------------|--------------------|---------------------|----------------------|--------------------|---------------------|----------------------|--------------------|--0--------12--------|--13--------12--------|--0---------5-------|
A5|--------------------|---------------------|----------------------|--------------------|---------------------|----------------------|--------------------|---------------------|----------------------|--------------------|---------------------|----------------------|--------------------|---------------------|----------------------|--6--------5--------|--0--------12--------|--13--------12--------|
D5 A5|--------------------|--------------------|-------------------------|--------------------|--------------------|-------------------------|--------------------|--------------------|-------------------------|--------------------|--------------------|-------------------------|--------------------|--------------------|-------------------------|--0--------5--------|--6--------5--------|--0----12----13----12----|
D5 A5| D5----------------------|-------------------------|----------------------|----------------------|-------------------------|----------------------|----------------------|-------------------------|----------------------|----------------------|-------------------------|----------------------|----------------------|-------------------------|----------------------|--0----5----6----5----|--0----12----13----12----|--0----5----6----5----|
A5| D5 A5| D5-----------------------------|-----------------------------|-----------------------------|-----------------------------|-----------------------------|-----------------------------|-----------------------------|-----------------------------|-----------------------------|-----------------------------|--0h-12--13--12--0h-5--6--5--|--0h-12--13--12--0h-5--6--5--|
A5| D5 A5| D5----------------------------------------|----------------------------------------|----------------------------------------|----------------------------------------|----------------------------------------|--0h12h13h12h0h5h6h5h0h12h13h12h0h5h6h5-|
A5|trem---------------------------------------------------------------------------------|---------------------------------------------------------------------------------|---------------------------------------------------------------------------------|---------------------------------------------------------------------------------|---------------------------------------------------------------------------------|--0h12h13h12h0h5h6h5h0h12h13h12h0h5h6h5-0h12h13h12h0h5h6h5h0h12h13h12------------|h0h5h6h5tr.
Tap to rate this tab
 
# A B C D E F G H I J K L M N O P Q R S T U V W X Y Z