Qbo - Tu Sombra tab

qbotu sombraintro---------------------------------|---------------------------------|------8--7--------8--7-----------|----------8--8--------5--5-------|---------------------------------|---------------------------------|
--------------------------------------|-16-15-------------16-15--------------|------14----------------14-15-17-16---| (2x)--------15-(16)-----------------------|--------------------------------------|--------------------------------------|
verso 1 p.m toquen esto todo el verso (escuchenla para enterderla mejor) hoy te observo, a cada paso cada momento
---------------------------------|-16-15---------------------------|------14-------------------------|---------------------------------|---------------------------------|---------------------------------|
pre-coro se que piensas en mi :
----------------------------|----------------------------|---8--7---------8--7--------|-------8--8---------5--5----|----------------------------|----------------------------|
estoy aqui , tan cerca coro
tienes que volver a mi , no quiero acabar asiy no puedo estar sin ti...se que puedes oir----------------------------------------------------------------|----------------------------------------------------------------|----------------------------------------------------------------| (2x)7/1010101010888-7/1010101010888-71010101010888-7/10101010100000-|7/1010101010888-7/1010101010888-71010101010888-7/10101010100000-|-----------------------------------------------------------0000-|
--------------------------------------|-16-15-------------16-15--------------|------14----------------14-15-17-16---| (2x)--------15-(16)-----------------------|--------------------------------------|--------------------------------------|
verso 2 p.m esto todo el verso soy tu sombra, soy tu sueños soy quien puede,
---------------------------------|-16-15---------------------------|------14-------------------------|---------------------------------|---------------------------------|---------------------------------|estar siemp're por ti:
tienes que volver a mi , no quiero acabar asi y no puedo estar sin ti... sabes que estoy aqui
--------------------------------------------------------------------|--------------------------------------------------------------------|--------------------------------------------------------------------| (2x)00007/1010101010888-7/1010101010888-71010101010888-7/10101010100000-|00007/1010101010888-7/1010101010888-71010101010888-7/10101010100000-|0000-----------------------------------------------------------0000-|
despues del coro se toca:
------------------------------------------------|------------------------------------------------|------------------------------------------------|94x4x4x4--4494x4x4x4--4494x4x4x4--4494x4x4x4----|94x4x4x4--4494x4x4x4--4494x4x4x4--4494x4x4x4----|72x2x2x2--2272x2x2x2--2272x2x2x2--2272x2x2x2----|
solo: (escuchen bien esta parte para k les salgan bien los bends y los silencios k lleva)
-----------------------------------------------------------|-----------------------------------------------------------|-----------------------------------------------------------|12/16-16b-16b-14-15-15-15--14-1413-1413-1413--16b15b-------|-----------------------------------------------------------|-----------------------------------------------------------|
----------------------------------------------------------|----------------------------------------------------------|-----------------------------------------------15bb-------|1216-16b-16b-15-15--14x14x14x-14-15------14-15----14------|------------------------------------16b16b-----------16.--|----------------------------------------------------------|algo asi masomenos hay partes k no se alcanzan a escuchar mu bien por algunos efectospero suena chido asi como me quedo...
en cuanto acaba el solo va esto:
no me niegues, no me ocultesya lo sabes-------------------------------------------|-------------------------------------------|------8--7--------8--7---------8--7--------|----------8--8--------8--8---------5--5----|-------------------------------------------|-------------------------------------------|
sigo aqui !!! tienes que volver a mi , no quiero acabar asi y no puedo estar sin ti...
--------------------------------------------------------------------|--------------------------------------------------------------------|--------------------------------------------------------------------|00007/1010101010888-7/1010101010888-71010101010888-7/10101010100000-|00007/1010101010888-7/1010101010888-71010101010888-7/10101010100000-|0000-----------------------------------------------------------0000-|
------------------------------------------------------------------|------------------------------------------------------------------|------------------------------------------------------------------|7/1010101010888-7/1010101010888-71010101010888-7/1010101010099----|7/1010101010888-7/1010101010888-71010101010888-7/1010101010099----|-----------------------------------------------------------077----|tienes que volver a mi , no quiero acabar asiy no puedo estar sin tise que puedes oir
----------------------------------------------------------------|----------------------------------------------------------------|----------------------------------------------------------------|(2x)7/1010101010888-7/1010101010888-71010101010888-7/10101010100000-|7/1010101010888-7/1010101010888-71010101010888-7/10101010100000-|-----------------------------------------------------------0000-|
final:
--------------------|--------------------|---5-5--------------|-7-----7------------| (4x)--------------------|--------------------|
dudas , quejas y sugerencias: pabloponce_freedomia@hotmail.com
Tap to rate this tab
 
# A B C D E F G H I J K L M N O P Q R S T U V W X Y Z