Qbo – No Mas tab ver. 2

QBo - NO MAS

 1=E   4=D
 2=B   5=A
 3=G   6=D

 P.M.= Palm Muted
 x - dead mute
 / - slide up
 \\ - slide down
 ~ vibrato

-|-------------------------------------------------------------|-|-------------------------------------------------------------|-|-------------------------------------------------------------|-|---9-9-9-9---9-9-9-9---9--9----9-9-9-9--9-9-9-9-9---0--------|-|---9-9-9-9---9-9-9-9---9--9----9-9-9-9--9-9-9-9-9---0--------|-|---9-9-9-9---9-9-9-9---9--9----9-9-9-9--9-9-9-9-9---0--------|
-|-------------------------------------------------------------|-|-------------------------------------------------------------|-|-------------------------------------------------------------|-|---9-9-9-9---9-9-9-9---9--9----9-9-9-9--9-9-9-9-9---0--------|-|---9-9-9-9---9-9-9-9---9--9----9-9-9-9--9-9-9-9-9---0--------|-|---9-9-9-9---9-9-9-9---9--9----9-9-9-9--9-9-9-9-9---0--------|
-|-------------------------------------------------------------|-|-------------------------------------------------------------|-|-------------------------------------------------------------|-|---9-9-9-9---9-9-9-9---9--9----9-9-9-9--9-9-9-9-9------------|-|---9-9-9-9---9-9-9-9---9--9----9-9-9-9--9-9-9-9-9----8-7-8---|-|---9-9-9-9---9-9-9-9---9--9----9-9-9-9--9-9-9-9-9------------|
-|-------------------------------------------------------------|-|-------------------------------------------------------------|-|-------------------------------------------------------------|-|---9-9-9-9---9-9-9-9---9--9----9-9-9-9--9-9-9-9-9---9-9/-----|-|---9-9-9-9---9-9-9-9---9--9----9-9-9-9--9-9-9-9-9---9-9/-----|-|---9-9-9-9---9-9-9-9---9--9----9-9-9-9--9-9-9-9-9---9-9/-----|
-|-------------------------------------------------------------|-|-------------------------------------------------------------|-|-------------------------------------------------------------|-|---9-9-9-9---9-9-9-9---9--9----9-9-9-9--9-9-9-9-9------------|-|---9-9-9-9---9-9-9-9---9--9----9-9-9-9--9-9-9-9-9----9-7-9---|-|---9-9-9-9---9-9-9-9---9--9----9-9-9-9--9-9-9-9-9------------|
-|-------------------------------------------------------------|-|-------------------------------------------------------------|-|-------------------------------------------------------------|-|---9-9-9-9---9-9-9-9---9--9----9-9-9-9--9-9-9-9-9---9-9/-----|-|---9-9-9-9---9-9-9-9---9--9----9-9-9-9--9-9-9-9-9---9-9/-----|-|---9-9-9-9---9-9-9-9---9--9----9-9-9-9--9-9-9-9-9---9-9/-----|
-|-------------------------------------------------------------------|l-|---15-14-----------------------------------------------------------|l-|---------13-10-----------------------------------------------l X 2-|-|----------------12-12----------------------------------------------|l-|-------------------------------------------------------------------|l-|-------------------------------------------------------------------|l
-|-------------------------------------------------------------|-|-------------------------------------------------------------|-|-------------------------------------------------------------|-|---0-5-5--0-7-7---0-0-0-0-12--0-0-12--0-0-12--0-0-12---------|-|---0-5-5--0-7-7---0-0-0-0-12--0-0-12--0-0-12--0-0-12---------|-|---0-5-5--0-7-7---0-0-0-0-12--0-0-12--0-0-12--0-0-12---------|
-|-------------------------------------------------------------|-|-------------------------------------------------------------|-|-------------------------------------------------------------|-|--0-0-5-5--0-0-7-7-8-7--0-0-0-0-12--0-0-12--0-0-12--0-0-12---|-|--0-0-5-5--0-0-7-7-8-7--0-0-0-0-12--0-0-12--0-0-12--0-0-12---|-|--0-0-5-5--0-0-7-7-8-7--0-0-0-0-12--0-0-12--0-0-12--0-0-12---|
-|-------------------------------------------------------------|-|-------------------------------------------------------------|-|----------7-7------------------------------------------------|-|--------7----------------------------------------------------|-|---10-7------------------------------------------------------|-|-------------------------------------------------------------|
-|-------------------------------------------------------------------|l-|---15-14-----------------------------------------------------------|l-|---------13-10-----------------------------------------------l X 2-|-|----------------12-12----------------------------------------------|l-|-------------------------------------------------------------------|l-|-------------------------------------------------------------------|l
-|-------------------------------------------------------------|-|-------------------------------------------------------------|-|-------------------------------------------------------------|-|---9-9-9-9---9-9-9-9---9--9----9-9-9-9--9-9-9-9-9---0--------|-|---9-9-9-9---9-9-9-9---9--9----9-9-9-9--9-9-9-9-9---0--------|-|---9-9-9-9---9-9-9-9---9--9----9-9-9-9--9-9-9-9-9---0--------|
Se aceptan Correcciones y comentarios. darkigniz darkigniz1@hotmail.com
Please rate this tab:
x1.0