Queen - Doing All Right tab

                           Queen:Doing All Right
                               QUEEN I/1973

piano (right) arr for guitar|-----0--------0--------0--------12---|----||-9-------10-------12-------10--------|----||-------------------------------------|-0/-||-9-------11-------13-------11--------|-/0-||-------------------------------------|----||---0---0----0---0----0---0----0----0-|-3X-|
|-----0--------0-------0-------0----------------------------------||-9-------10-------9-------9--------9---9---9---7---7---7---5-----||------------------7-------6--------9---9---9---8---8---8---6-----||-9-------11-------9-------8--------9---9-------9---9---9---7-----||-----------------------------------------------------------------||---0---0----0---0---0---0---0---0------7-------------7--------5--|
clean eletric guitar (left)|------------|----------------|----------------------------------------*|-12b14__r12-|----------------|----------------------------------------*|------------|-12-11-9----9---|----------9----13r11p9------11b13--b13--*|------------|---------11-----|------9----------------11---------------*|------------|----------------|-9/11-----------------------------------*|------------|----------------|----------------------------------------*
*-------------------------|---------------------------------------------|*-12----------------------|-12b14---12----------------------------------|*----13r11---11p9------9--|-------------11b13-----13r11-9---8h9p8-------|*-----------------11p9----|---------------------------------------9/11--|*-------------------------|---------------------------------------------|*-------------------------|---------------------------------------------|
|---------------------------------------------------------------||---------------------------------------------------------------||----------13r11----------13r11b13r11-b13---13r11p9-------------||-(9b11r9)------------------------------------------11---9-7-6--||---------------------------------------------------------------||---------------------------------------------------------------|
|----------------------------------------------||-------------------12----10--9-10-8h9p8-------||-/9--------13r11p9----------------------11-9--||-------11-------------------------------------||----------------------------------------------||----------------------------------------------|
acoustic guitar|-------------------------------------------0-0-0-------22-------5-----||---3--3-3-3--------33-3-3-3-----3----3------------2-------3-3-3----2--||--2-2-2-0-0-2--2--2-2-2-0-0----2----2--2-2-0-0--2-----2-2-2-0-0---2---||-0------------2--0------------2----0-------------2---0-----------2----||----4-4-2-2--0------4-4-2-2-20---------4-4-2-2-0--------4-4-2-2-0-----||----------------------------------------------------------------------|
|------------------------------------4-4------0------4-4--------0----||---33-3-3-3-3--3------3-----2-------4-4-2-----0-----4-4-2-2--0------||--2-2-2-0-0-----------2-0-0----2----4-4-2------2----4-4-2-2------01-||-0------------2--0----------------2--------2----2-2-----------2-2---||----4-4-2-2-0-------4-4-2-2--0---2------0---------2-----0-0---------||---------------------------------0----------------0-----------------|
|---4-4--------0------------0--0--------------------||---4-4-----0-------3------2----3---3---2--2--------||-------2-2--2--------0-0----0--------0-----2-------||-----2-------2--------0------2--------0--2--2---2--||-2-----0-0------101-----0-------101-----0----------||-0-------------------------------------------------|
|---------------------------------------------5---------------0---||---------------------3-3-3-3---------3-3---------------3-3-3----3||----2-2-0-0-2--2-----2-2-0-0----2----2-2-0-0----2----2-2-0-0-----||-0--0---------2---0--0-0-0-0-0-2--0--0-0-0-0---2--0--0-0-0-0---2-||----4-4-2-2--0-------4-4-2-2--0------4-4-2-2--0------4-4-2-2-0---||-----------------------------------------------------------------|
|-------------------||------------3--3-..||----2-2-0-0-2----..||-0--0-0-0-0---2--..||----4-4-2-2-0----..||-----------------..|
right and left guitar E(VII) B(VII) D(V) A(V) E(VII) B(VII) D(V) A(V) E(VII) B(VII) D(V) A(V) E(VII) B(VII) D(V) A(V) E(VII) E(VII) A(V) E(VII) B(VII) E(VII) A(V) E(VII) B(VII) E(VII) E(VII) A(V) E(VII) B(VII) E(VII) A(V) E(VII) B(VII) E(VII) E
midle guitar|--------------------------------------------||--------------------------------------------||--------------------------------------------||--------------------------5-----------------||-7--------5-6-7------------7-------5-6-7----||-----7----------5----3p0-------7---------5--|
|--------------------------------------------------------------------------||--------------------------------------------------------------------------||-------------------------------12b------1414-12-----14b16-b16-b16---b16---||-h14-12----12---14p12-14p12----------14---------14------------------------||--------14------------------14--------------------------------------------||--------------------------------------------------------------------------|
|-----------------------------------------------------------------------------||----------------------15b17---15b17-------------b17---b17---b17---b17---b17--||-b16-b16-b16-b16-r14----------------------------------------b16---b16---b16--||-------------------------------------2p0h2..2p0------------------------------||-----------------------------------------------------------------------------||-----------------------------------------------------------------------------|
|----------12-12----------12-------------12-------------12------||-------12-------------12---1512------12---1512------12----1512-||-14b16----------14b16----------14b16----------14b16------------||---------------------------------------------------------------||---------------------------------------------------------------||---------------------------------------------------------------|
|----------12----12-----------------||-------12----12----12-12-12-15b17--||-14b16-----------------------------||-----------------------------------||-----------------------------------||-----------------------------------|
clean eletric guitar (left)|----------------------------12---16r14b16r14-12--|-19_____---------------||-9h10p9..10p9---10--10/12------------------------|---21r19-17------17vv--||-------------------------------------------------|-------------18--------||-------------------------------------------------|-----------------------||-------------------------------------------------|-----------------------||-------------------------------------------------|-----------------------|
|------------------------------------------------------------||------------------------------------------------------------||-18-18p16---16-18p16-18p16-18---16----13h16p13h16p13h16p13--||------------------------------------------------------------||------------------------------------------------------------||------------------------------------------------------------|
|---------------------------------|------------------------------------------||---------------------------------|------------------------------------------||---------------------------------|------------------------------------------||-18r16--14--18r16--(14)--16b18v--|-/14--/14--/14-----14---------------------||---------------------------------|----------------16------------------------||---------------------------------|------------------------------------------|
right and left guitar E(VII) B(VII) D(V) A(V) E(VII) B(VII) D(V) A(V) E(VII) B(VII) D(V) A(V) E(VII) B(VII) D(V) A(V) E(VII) B(VII) D(V) A(V) E(VII) B(VII) D(V) A(V) E(VII) (D(V)) E(VII) A(V) E(VII) B(VII) E(VII) A(V) E(VII) B(VII) E(VII) E(VII) A(V) E(VII) B(VII) E(VII) A(V) E(VII) B(VII) E(VII) E
midle guitar|-----------------------------------------------------------------------------||-----------------------------------------------------------------------------||--------------------------------------------------16r14-12-------------------||-------------------14p12----12---12-14p12----14-----------------12-13-14-----||-7-------5-6-7-7---------14---------------14---------------14------------12--||-----7-----------------------------------------------------------------------|
|--------------------------------------------------------------------12--------||-----------------------------------------------------------------12----15b17--||---------------------------------------------------9-11b13v_\/13--------------||----------------------------------------------9-11----------------------------||-10--------------------------------------5/10---------------------------------||----12-12-12---12-12-12-12-12-12-12-12----------------------------------------|
|-------12-12-12-12-12-12----15b17---b17---b17---b17---17r15p13---||-----------------------------------------------------------------||-14b16------------------(0)--------------------------------------||-----------------------------------------------------------------||-----------------------------------------------------------------||-----------------------------------------------------------------|
|-b21---19v---17---16----16---------------21r19---------------------||--------------------------19-17-21r19p17------(17)-17---17---17-17-||-------------------------------------------------------------------||-------------------------------------------------------------------||-------------------------------------------------------------------||-------------------------------------------------------------------|
|------------------------------------------------------------||-21r19p17-17------17-\--------------------------------------||---------------18----------14b16---14--13--11---------------||-------------------------------------------------13--13p11--||------------------------------------------------------------||------------------------------------------------------------|
the vocal|-------------------------------||-12-10-9--9--9--9--10-12-12-12-||-13-11-9--9--9--11-11-11-11-13-||-14-11-9--9--11-11-11-13-14-14-||-------------------------------||-------------------------------|
Tap to rate this tab
 
# A B C D E F G H I J K L M N O P Q R S T U V W X Y Z