Queen – We Are The Champions Acoustic tab

Title   : We Are The Champions (Acoustic Version)
Artist  : Queen                             


Guitar (Capo 3)
jagdeep_1789@yahoo.com

Pls Give This Tab A Good Rate..


Intro E||------------------||---------------------|--------------------|B||------------------||---1--------1--------|--0----0------------|G||-----------0--0-2-||*--2-----2-----2-----|--0----0-----0--0-2-|D||--------2---------||*-----2-----------2--|--0----0--2---------|A||------------------||---0-----------------|--------------------|E||------------------||---------------------|--0----0------------|
--------------------|----------------------|--------------------|--1--------1--------|--0----0--------------|--1--------1--------|--2-----2-----2-----|--0----0------0-0-0-2-|--2-----2-----2-----|-----2-----------2--|--0----0--2-2---------|-----2-----------2--|--0-----------------|----------------------|--0-----------------|--------------------|--0----0--------------|--------------------|
--------------------|--------------------|--------------------|--0----0------------|--1--------1--------|--0----0-----0--0-1-|--0----0-----0--0-2-|--2-----2-----2-----|--0----0--0---------|--0----0--2---------|-----2-----------2--|--0----0------------|--------------------|--0-----------------|--------------------|--0----0------------|--------------------|--0----0------------|
--------------------|--1----1------------|--------------------|--1--------1--------|--1----1-----0--0-1-|--1--------1--------|--0-----0-----0-----|--0----0--0---------|--0-----0-----0-----|-----2-----------2--|--------------------|-----2-----------2--|--3-----------------|--3----3------------|--3-----------------|--------------------|--------------------|--------------------|
--1----1------------|--------------------|--0-----0--2-----2--|--1----1-----0--0-1-|--1-----1--3-----3--|--1-----1--1-----1--|--0----0--0---------|--0-----0--0-----0--|-----2--------2-----|--------------------|-----2--------2-----|--------------------|--3----3------------|--3--------2--------|--0-----------------|--------------------|--------------------|-----------2--------|
--3------------------1-|--5----3--5----3--|--5----3--5------|--0-----0--------0-3---|--1-------1-------|--1-------2------|-----0---------0-------|--0-------0-------|--0-------2------|-------------0---------|--0-------0-------|--0-------2------|-----------2-----------|--0-------0-------|--0-------0------|--3--------------------|------------------|-----------------|
We Are The Champions --------------------|--------------------|--------------------|--3--------3-----3--|--2-----------------|--3-----------------|--2-----2--2-----2--|--2-----2--2--------|--4-----4--4--------|--0--0--------0-----|-----4-----4-----4--|-----4-----4-----4--|--0-----------------|--------------4-----|--2-----------2-----|--------------------|--2-----------------|--------------------|
--------------------|--------------0--2--|--5--------2--------|--------------------|--3--------3--3--3--|--2-----2--2-----2--|-----------2--2--2--|--2-----2--2--------|--2--2--------2-----|--5--5--5--2--2--2--|--0--0--------------|--4-----------------|--5--5--5--0--0--0--|--0-----------------|--------------------|--3--3--3-----------|--------------------|--------------------|
--------------------|--------------------|--------------------|--0-----------------|-----------1--0-----|--0--------------0--|--0--------0--------|--2-----2--2-----2--|--0-----0--2--------|--0-----0-----4--2--|--1--4-----1--------|--2--2-----2--------|-----2--------------|--2--------2--------|--------------2-----|--3-----------------|--------------------|--3-----------------|
--------------------|--3--------2-----3--|--2--------0--------|--------------------|--2-----2--2-----2--|--2--------2-----2--|--2--------0-----0--|--3--3--------3--3--|--------3--3--3-----|--2-----2--2--2-----|--2-----------------|-----4-----2--------|-----2--------------|-----------------0--|--4-----------------|--------------------|--------------------|--------------------|
--2-----2--------3--|--2-----2--------3--|--1-----1--------3--|--3--------3--------|--3--------3--------|--3-----0--3--------|--2--2-----2--------|--2--2-----2--------|--0--0--------0-----|--0-----------0-----|--------------------|--0-----------------|--------------------|--3-----------3-----|--------------------|--------------------|--------------------|--------------------|
--1-----1-----------|-------------------|-----------1--------|----------------|--0--------3--1-----|--3-3-3------1-----|--3-----3--3--3-----|--0----0--------|--0--0-----------2--|--5-5-5---------2--|--2--2-----------2--|--0----0--------|--------0-----------|--5-5-5------------|--0-----------------|--0----0--------|--2--------5--3--0--|--0-0-0------------|--0-----------------|----------------|--------------------|--5-5-5------------|--------------------|----------------|
--------------------|----------------------||--------------------|-----------3--------|--0----0--------------||--3--------3-----3--|--------2-----2-----|--2----2------0--0-2-*||--2-----2--2-----2--|-----3-----------3--|--2----2--2-2--------*||--0--0--------0-----|--5-----------------|--0----0--------------||--0-----------------|--------------------|----------------------||--------------------|
--------------------|--------------------|--------------------|--2-----------------|--3-----------------|--------------------|--2-----2--2--------|--4-----4--4--------|-----------2--2--2--|-----4-----4-----4--|-----4-----4-----4--|--5--5--5--2--2--2--|--------------4-----|--2-----------2-----|--5--5--5--0--0--0--|--2-----------------|--------------------|--3--3--3-----------|
--------------0--2--|--5--------2--------|--------------------|--3--------3--3--3--|--2-----2--2-----2--|--0-----------------|--2-----2--2--------|--2--2--------2-----|--0--------0--------|--0--0--------------|--4-----------------|--0-----0-----4--2--|--0-----------------|--------------------|-----2--------------|--------------------|--------------------|--3-----------------|
-----------------------|--------------------|--------------------|-----------1--0-1-0----|--0--------------0--|--------------------|--2-----2--2--------2--|--0-----0--2--------|--2--------0-----0--|--1--4-----1-----------|--2--2-----2--------|--2-----2--2--2-----|--2--------2-----------|--------------2-----|-----2--------------|-----------------------|--3-----------------|--------------------|
--3--------2-----3--|--2--------0--------|--2-----2--------3--|--2-----2--2-----2--|--2--------2-----2--|--3--------3--------|--3--3--------3--3--|--------3--3--3-----|--2--2-----2--------|--2-----------------|-----4-----2--------|--0-----------0-----|-----------------0--|--4-----------------|--------------------|--------------------|--------------------|--------------------|
--2-----2--------3--|--1-----1--------3--|--1-----1-----------|--3--------3--------|--3-----0--3--------|--0--------3--1-----|--2--2-----2--------|--0--0--------0-----|--0--0-----------2--|--------------------|--0-----------------|--------0-----------|--3-----------3-----|--------------------|--2--------5--3--0--|--------------------|--------------------|--------------------|
----------------||--3--3----------||--5--5----------|| End !--5--5----------||--0--0----------||--5--5----------||
Please rate this tab:
x1.0