Queens Of The Stone Age - Christian Brothers tab

Artist: Queens of the Stone Age
Album: Era Vulgaris
Song: Christian Brothers (Elliott Smith Cover)
Tabbed By: A Dead Fly

Standard Tuning

The song has two guitars in it, but this tab only has the main guitar and the
solo part from the other guitar.  See my guitar pro version for all the fills in 
the song for the other guitar.

Intro:
  
A7 Am Cadd9E||--0-------0-------------|--0-------0-------------|--0-------0-------------|B||--2-------2----2--2--0--|--1-------1----1--1--0--|--3-------3----3--3--0--|G||--0-------0----0--0--0--|--2-------2----2--2--2--|--0-------0----0--0--0--|D||--2----x--2----2--2--2--|--2----x--2----2--2--2--|--2----x--2----2--2--2--|A||--0----x--0-------------|--0----x--0-------------|--3----x--3-------------|E||-------x----------------|-------x----------------|-------x----------------|
Em--0-------0-------------|--0-------0-------------|--0-------0-------------|--0-------0----0--0--0--|--2-------2----2--2--0--|--3-------3----3--3--0--|--0-------0----0--0--0--|--0-------0----0--0--0--|--0-------0----0--0--0--|--2----x--2----2--2--2--|--2----x--2----2--2--2--|--2----x--2----2--2--2--|--2----x--2-------------|--0----x--0-------------|--3----x--3-------------|--0----x--0-------------|-------x----------------|-------x----------------|
Verse:
---------------------------|---------------------------|-------------------1-------|-------------------1-------|-----------------0---0-----|-----------------0---0-----|-------2----0h-2--------0--|-------2----0h-2--------0--|-------2-------------------|-------2-------------------|--0----0-------------------|--0----0-------------------|
------------------------|--------0------------0------|------------------------|--------2------------2------|------------------------|--0--0--0--0-0-0-----0--0-0-|-------2----x-----------|--2--2--2--2-2-2--2--2--2-2-|-------2----x-----------|--0--0--0--0-0-0--0--0--0-0-|--0----0-------0--2--4--|----------------------------|
--------0-----------0-----|---------------------------|------------------------|--1--1--1--1--1--1--1--0--|-------------------1-------|------------------------|--2--2--2--2--2--2--2--2--|-----------------0---0-----|------------------------|--2--2--2--2--2--2--2--2--|-------2----0h-2--------0--|-------2----x-----------|--0--0--0--0--0--0--0--0--|-------2-------------------|-------2----x-----------|--------------------------|--0----0-------------------|--0----0-------0--2--4--|
--------0-----0-----0------|--0-----0-----0-----0-----|--------2-----2-----2------|--1-----1-----1-----1-----|--0-----0--0--0--0--0--0-0-|--2--2--2--2--2--2--2--2--|--2--2--2--2--2--2--2--2-2-|--2--2--2--2--2--2--2--2--|-----0--0--0--0--0--0--0-0-|--0--0--0--0--0--0--0--0--|---------------------------|--------------------------|
---------------------------|------------------------|-------------------1-------|------------------------|-----------------0---0-----|------------------------|-------2----0h-2--------0--|-------2----x-----------|-------2-------------------|-------2----x-----------|--0----0-------------------|--0----0-------0--2--4--|
D F--2-----2-----2-----2------|--1-----1-----1-----1------|--3-----3-----3-----3--3-3-|--1-----1-----1-----1------|--2--2--2--2--2--2--2--2-2-|--2--2--2--2--2--2--2--2-2-|--0--0--0--0--0--0--0--0-0-|--3--3--3--3--3--3--3--3-3-|---------------------------|--3--3--3--3--3--3--3------|---------------------------|--1--1--1--1--1--1--1------|
Alternate Verse: Same as Verse only with one extra
---------------------------|-------------------1-------|-----------------0---0-----|-------2----0h-2--------0--|-------2-------------------|--0----0-------------------|
at the beggining Chorus:
--0-----0-----0-----0------|--0-----0-----0-----0------|--2-----2-----2-----2--2-2-|--1-----1-----1-----1--0-0-|--0--0--0--0--0--0--0--0-0-|--2--2--2--2--2--2--2--2-2-|--2--2--2--2--2--2--2--2-2-|--2--2--2--2--2--2--2--2-2-|--0--0--0--0--0--0--0--0-0-|--0--0--0--0--0--0--0--0-0-|---------------------------|---------------------------|
--0-----0-----0-----0-----|--0-----0-----0-----0-----|--3-----3-----3-----3--0--|--0--0--0-----0-----0--0--|--0--0--0--0--0--0--0--0--|--0--0--0--0--0--0--0--0--|--2--2--2--2--2--2--2--2--|--2--2--2--2--2--2--2--2--|--3--3--3--3--3--3--3--3--|--2--2--2--2--2--2--2--2--|--------------------------|--0-----------------------|
--0-----0-----0-----0------|--0-----0-----0-----0------|--2-----2-----2-----2--2-2-|--3-----3-----3-----3--3-3-|--0--0--0--0--0--0--0--0-0-|--0--0--0--0--0--0--0--0-0-|--2--2--2--2--2--2--2--2-2-|--2--2--2--2--2--2--2--2-2-|--0--0--0--0--0--0--0--0-0-|--3--3--3--3--3--3--3--3-3-|---------------------------|---------------------------|
Solo part (play this or just play a shorter verse for the other guitar):
-7--7--7--5----3----L--|-----------------------|-----------------------|-----------------------|-----------------------|-----------------------|
--2h--3----2----0-------|-----|-----|--7--7--7--5----3-------|------------------------|-----|-----|------------------------|------------------------|-----|-----|------------------------|------------------------|-----|-----|------------------------|------------------------|-----|-----|------------------------|------------------------|-----|-----|------------------------|
--2h--3------7~-----------|-------------------|-------------------|--------------------------|--8----------------|--8----------------|--------------------------|-------------------|-------------------|--------------------------|-------------------|-------------------|--------------------------|-------------------|-------------------|--------------------------|-------------------|-------------------|
Outro Verse:--0-----0-----0-----0------|--2-----2-----2-----2--2-2-|--0--0--0--0--0--0--0--0-0-|--2--2--2--2--2--2--2--2-2-|--0--0--0--0--0--0--0--0-0-|---------------------------|
--0-----0-----0-----0------|--0----------------|--0----------------|--1-----1-----1-----1--0-0-|--3----------------|--0----------------|--2--2--2--2--2--2--2--2-2-|--0----------------|--0----------------|--2--2--2--2--2--2--2--2-2-|--2----------------|--2----------------|--0--0--0--0--0--0--0--0-0-|--3----------------|--2----------------|---------------------------|-------------------|--0----------------|
--0----------------|--0----------------|-------------------|--2----------------|--3----------------|-------------------|--0----------------|--0----------------|-------------------|--2----------------|--2----------------|-------------------|--0----------------|--3----------------|-------------------|-------------------|-------------------|-------------------|
Song Order: Intro x 2 Verse x 1 Chorus x 2 Alternate Verse x1 Chorus x 4 Solo / Short Verse x1 Chorus x 4 Outro x 1 Email questions or comments to azlizard13@yahoo.com Please give me credit if you use this tab for a video
Tap to rate this tab
 
# A B C D E F G H I J K L M N O P Q R S T U V W X Y Z