Queens Of The Stone Age - Go With The Flow tab

                                GO WITH THE FLOW
                     As recorded by Queens Of The Stone Age
                    (From the 2002 Album SONGS FOR THE DEAF)

Words and Music by Josh Homme & Nick Oliveri
Transcribed by www.mikesguitarsite.co.uk

Gtr I (E A D G B E) - 'Josh Homme - Rhythm w/ dist'
Gtr II (E A D G B E) - 'Josh Homme - Lead w/ dist'
Gtr III (E A D G B E) - 'Josh Homme - Lead w/ dist'

Intro Q=164 4/4 Gtr II ~~|-----------------|-----------------|-----------12-12-12s15-12-||-----------------|-----------------|--------------------------||-----------------|-----------------|-----12-13----------------||-----------------|-----------------|--------------------------||-----------------|-----------------|--------------------------||-----------------|-----------------|--------------------------|
|
| Gtr I|-----------------|-----------------|--------------------------||-----------------|-----------------|--------------------------||-1-1-1-1-1-1-1-1-|-1-1-1-1-1-1-1---|-5-5--5--5--5--5--5-------||-2-2-2-2-2-2-2-2-|-2-2-2-2-2-2-2---|-5-5--5--5--5--5--5-------||-2-2-2-2-2-2-2-2-|-2-2-2-2-2-2-2---|-3-3--3--3--3--3--3-------||-0-0-0-0-0-0-0-0-|-0-0-0-0-0-0-0-3-|---------------------0----|
~~~~|-(12)-------12-12-12-12----|------------------|-------------------------||------------------------12-|-12---------------|-12-13-15-13-(13)-12-----||---------------------------|------------------|-------------------------||---------------------------|------------------|-------------------------||---------------------------|------------------|-------------------------||---------------------------|------------------|-------------------------|
|
|---------------------------|------------------|-------------------------||---------------------------|------------------|-------------------------||---2--2-2-2--2--2-----2--2-|--1-1-1-1-1-1-1-1-|--1--1--1--1---1---1-1---||---2--2-2-2--2--2-----2--2-|--2-2-2-2-2-2-2-2-|--2--2--2--2---2---2-2---||---0--0-0-0--0--0-----0--0-|--2-2-2-2-2-2-2-2-|--2--2--2--2---2---2-2---||---------------------------|--0-0-0-0-0-0-0-0-|--0--0--0--0---0---0-0-3-|
|-------------12s14---14b15==|=(14)---(14)r==(14)--------||-(12)-----------------------|----------------------17---||----------12----------------|---------------------------||----------------------------|---------------------------||----------------------------|---------------------------||----------------------------|---------------------------|
|
|----------------------------|---------------------------||----------------------------|---------------------------||---5--5-5--5--5--5-5--------|---2--2---2--2---2--2--2-2-||---5--5-5--5--5--5-5--------|---2--2---2--2---2--2--2-2-||---3--3-3--3--3--3-3--------|---0--0---0--0---0--0--0-0-||----------------------0-----|---------------------------|
~~~~|-17b19==(17)---------------|-17-------(17)r-----18pb20\-|||---------------------------|----------------------------|||---------------------------|--------------------17\-----|||---------------------------|----------------------------|||---------------------------|----------------------------|||---------------------------|----------------------------||
|
|---------------------------|----------------------------|||---------------------------|----------------------------|||----------1--1-1-1-1-1-1-1-|--1-1-1-1---1---1-1---------|||----------2--2-2-2-2-2-2-2-|--2-2-2-2---2---2-2---------|||----------2--2-2-2-2-2-2-2-|--2-2-2-2---2---2-2---------|||----------0--0-0-0-0-0-0-0-|--0-0-0-0---0---0-0--3------||
Verse|-----------------|-----------------||-----------------|-----------------||-----------------|-----------------||-----------------|-----------------||-----------------|-----------------||-----------------|-----------------|
|
|-----------------|-----------------||-----------------|-----------------||-5-5-5-5-5-5-5---|-2-2-2-2-2-2-2-2-||-5-5-5-5-5-5-5---|-2-2-2-2-2-2-2-2-||-3-3-3-3-3-3-3---|-0-0-0-0-0-0-0-0-||---------------0-|-----------------|
|-----------------|--------------------------||-----------------|-12-13-15-13-(13)-12------||-----------------|--------------------------||-----------------|--------------------------||-----------------|--------------------------||-----------------|--------------------------|
|
|-----------------|--------------------------||-----------------|--------------------------||-1-1-1-1-1-1-1-1-|--1--1--1--1---1---1-1----||-2-2-2-2-2-2-2-2-|--2--2--2--2---2---2-2----||-2-2-2-2-2-2-2-2-|--2--2--2--2---2---2-2----||-0-0-0-0-0-0-0-0-|--0--0--0--0---0---0-0-3--|
|---------------------|-----------------|-----------------|------------------||-(12)----------------|-----------------|-----------------|------------------||----------12---------|-----------------|-----------------|------------------||---------------------|-----------------|-----------------|------------------||---------------------|-----------------|-----------------|------------------||---------------------|-----------------|-----------------|------------------|
|
|---------------------|-----------------|-----------------|------------------||---------------------|-----------------|-----------------|------------------||---5--5-5--5-5-5-5---|-2-2-2-2-2-2-2-2-|-1-1-1-1-1-1-1-1-|-1-1-1-1-1-1-1----||---5--5-5--5-5-5-5---|-2-2-2-2-2-2-2-2-|-2-2-2-2-2-2-2-2-|-2-2-2-2-2-2-2----||---3--3-3--3-3-3-3---|-0-0-0-0-0-0-0-0-|-2-2-2-2-2-2-2-2-|-2-2-2-2-2-2-2----||-------------------0-|-----------------|-0-0-0-0-0-0-0-0-|-0-0-0-0-0-0-0-3--|
|-15---------------|------------------||------------------|-12---------------||------------------|------------------||------------------|------------------||------------------|------------------||------------------|------------------|
|
|------------------|------------------||------------------|------------------||--5-5-5-5-5-5-5---|--2-2-2-2-2-2-2-2-||--5-5-5-5-5-5-5---|--2-2-2-2-2-2-2-2-||--3-3-3-3-3-3-3---|--0-0-0-0-0-0-0-0-||----------------0-|------------------|
|-12-12-12-12-12-12-12-12-|-12-12-12-12-12\--------||-------------------------|------------------------||-------------------------|------------------------||-------------------------|------------------------||-------------------------|------------------------||-------------------------|------------------------|
|
|-------------------------|------------------------||-------------------------|------------------------||--1--1--1--1--1--1--1--1-|--1--1--1--1--1--1-1----||--2--2--2--2--2--2--2--2-|--2--2--2--2--2--2-2----||--2--2--2--2--2--2--2--2-|--2--2--2--2--2--2-2----||--0--0--0--0--0--0--0--0-|--0--0--0--0--0--0-0-3--|
Gtr I|-----------------|-----------------|-----------------|------------------||-----------------|-----------------|-----------------|------------------||-5-5-5-5-5-5-5---|-2-2-2-2-2-2-2-2-|-1-1-1-1-1-1-1-1-|-1-1-1-1-1-1-1----||-5-5-5-5-5-5-5---|-2-2-2-2-2-2-2-2-|-2-2-2-2-2-2-2-2-|-2-2-2-2-2-2-2----||-3-3-3-3-3-3-3---|-0-0-0-0-0-0-0-0-|-2-2-2-2-2-2-2-2-|-2-2-2-2-2-2-2----||---------------0-|-----------------|-0-0-0-0-0-0-0-0-|-0-0-0-0-0-0-0-3--|
Gtr II|------------------|------------------|------------------|---------------------||-13---------------|------------------|-12---------------|-(12)----------------||------------------|-14---------------|------------------|---------------------||------------------|------------------|------------------|---------------------||------------------|------------------|------------------|---------------------||------------------|------------------|------------------|---------------------|
|
| Gtr I|------------------|------------------|------------------|---------------------||------------------|------------------|------------------|---------------------||--5-5-5-5-5-5-5---|--2-2-2-2-2-2-2-2-|--1-1-1-1-1-1-1-1-|---1--1-1-1-1-1-1----||--5-5-5-5-5-5-5---|--2-2-2-2-2-2-2-2-|--2-2-2-2-2-2-2-2-|---2--2-2-2-2-2-2----||--3-3-3-3-3-3-3---|--0-0-0-0-0-0-0-0-|--2-2-2-2-2-2-2-2-|---2--2-2-2-2-2-2----||----------------0-|------------------|--0-0-0-0-0-0-0-0-|---0--0-0-0-0-0-0-3--|
Gtr I|-----------------|-----------------|-----------------|------------------|||-----------------|-----------------|-----------------|------------------|||-5-5-5-5-5-5-5---|-2-2-2-2-2-2-2-2-|-1-1-1-1-1-1-1-1-|-1-1-1-1-1-1-1----|||-5-5-5-5-5-5-5---|-2-2-2-2-2-2-2-2-|-2-2-2-2-2-2-2-2-|-2-2-2-2-2-2-2----|||-3-3-3-3-3-3-3---|-0-0-0-0-0-0-0-0-|-2-2-2-2-2-2-2-2-|-2-2-2-2-2-2-2----|||---------------0-|-----------------|-0-0-0-0-0-0-0-0-|-0-0-0-0-0-0-0-3--||
Chorus $ Gtr II < <||--12---------------|------------------|||o------------------|-15---------------|||--12---------------|------------------|||-------------------|-14---------------|||o------------------|------------------|||-------------------|------------------|
|
| Gtr I||-------------------|------------------|||o------------------|------------------|||---5-5-5-5-5-5-5-5-|--7-7-7-7-7-7-7-7-|||---5-5-5-5-5-5-5-5-|--7-7-7-7-7-7-7-7-|||o--3-3-3-3-3-3-3-3-|--5-5-5-5-5-5-5-5-|||---3-3-3-3-3-3-3-3-|--5-5-5-5-5-5-5-5-|
To Coda < 4x|------------------|---------------------|||-12---------------|-(12)---------------o|||-13---------------|-(13)----------------|||------------------|---------------------|||------------------|--------------------o|||------------------|---------------------||
|
| 4x|------------------|---------------------|||------------------|--------------------o|||--1-1-1-1-1-1-1-1-|---1--1-1-1-1-1-1----|||--2-2-2-2-2-2-2-2-|---2--2-2-2-2-2-2----|||--2-2-2-2-2-2-2-2-|---2--2-2-2-2-2-2---o|||--0-0-0-0-0-0-0-0-|---0--0-0-0-0-0-0-3--||
Verse|-----------------|-----------------|------------------|-----------------------||-----------------|-----------------|------------------|-12----12s9-(9)--------||-----------------|-----------------|------------------|-----------------------||-----------------|-----------------|---------------14-|----14-----------------||-----------------|-----------------|------------------|-----------------------||-----------------|-----------------|------------------|-----------------------|
|
|-----------------|-----------------|------------------|-----------------------||-----------------|-----------------|------------------|-----------------------||-5-5-5-5-5-5-5---|-2-2-2-2-2-2-2-2-|-1-1-1-1-1-1-1--1-|--1--1--1-1--1--1-1----||-5-5-5-5-5-5-5---|-2-2-2-2-2-2-2-2-|-2-2-2-2-2-2-2--2-|--2--2--2-2--2--2-2----||-3-3-3-3-3-3-3---|-0-0-0-0-0-0-0-0-|-2-2-2-2-2-2-2--2-|--2--2--2-2--2--2-2----||---------------0-|-----------------|-0-0-0-0-0-0-0--0-|--0--0--0-0--0--0-0-3--|
|-------------------|-----------------|--------------------|------------------||-8-----------(8)s==|=7---------------|-5-------(5)\-------|------------------||-------------------|-----------------|--------------------|------------------||-------------------|-----------------|--------------------|------------------||-------------------|-----------------|--------------------|------------------||-------------------|-----------------|--------------------|------------------|
|
|-------------------|-----------------|--------------------|------------------||-------------------|-----------------|--------------------|------------------||-5-5-5-5-5-5--5----|-2-2-2-2-2-2-2-2-|-1-1-1-1--1---1-1-1-|-1-1-1-1-1-1-1----||-5-5-5-5-5-5--5----|-2-2-2-2-2-2-2-2-|-2-2-2-2--2---2-2-2-|-2-2-2-2-2-2-2----||-3-3-3-3-3-3--3----|-0-0-0-0-0-0-0-0-|-2-2-2-2--2---2-2-2-|-2-2-2-2-2-2-2----||-----------------0-|-----------------|-0-0-0-0--0---0-0-0-|-0-0-0-0-0-0-0-3--|
Gtr I|-----------------|-----------------|-----------------|------------------||-----------------|-----------------|-----------------|------------------||-5-5-5-5-5-5-5---|-2-2-2-2-2-2-2-2-|-1-1-1-1-1-1-1-1-|-1-1-1-1-1-1-1----||-5-5-5-5-5-5-5---|-2-2-2-2-2-2-2-2-|-2-2-2-2-2-2-2-2-|-2-2-2-2-2-2-2----||-3-3-3-3-3-3-3---|-0-0-0-0-0-0-0-0-|-2-2-2-2-2-2-2-2-|-2-2-2-2-2-2-2----||---------------0-|-----------------|-0-0-0-0-0-0-0-0-|-0-0-0-0-0-0-0-3--|
Gtr II|-15---------------|------------------||------------------|-12---------------||------------------|------------------||------------------|------------------||------------------|------------------||------------------|------------------|
|
| Gtr I|------------------|------------------||------------------|------------------||--5-5-5-5-5-5-5---|--2-2-2-2-2-2-2-2-||--5-5-5-5-5-5-5---|--2-2-2-2-2-2-2-2-||--3-3-3-3-3-3-3---|--0-0-0-0-0-0-0-0-||----------------0-|------------------|
Gtr III|-12------------------------|--------(12)---------------------||----------15pb17r(15)------|---------------------------------||---------------------------|-14b16==(14)r--------------------||------------------------14-|------------------14s12----------||---------------------------|------------------------12s10----||---------------------------|------------------------------10-|
|
|---------------------------|---------------------------------||---------------------------|---------------------------------||--1-1-1-1--1-------1--1--1-|----------1---1-1--1--1--1--1----||--2-2-2-2--2-------2--2--2-|----------2---2-2--2--2--2--2----||--2-2-2-2--2-------2--2--2-|----------2---2-2--2--2--2--2----||--0-0-0-0--0-------0--0--0-|----------0---0-0--0--0--0--0--3-|
|------------------|-----------------||------------------|-----------------||------------------|-----------------||------------------|-----------------||------------------|-----------------||-12---------------|-----------------|
|
|------------------|-----------------||------------------|-----------------||--5-5-5-5-5-5-5---|-2-2-2-2-2-2-2-2-||--5-5-5-5-5-5-5---|-2-2-2-2-2-2-2-2-||--3-3-3-3-3-3-3---|-0-0-0-0-0-0-0-0-||----------------0-|-----------------|
Gtr II|-----------------|-------------------------||-----------------|-------------------------||-----------------|-------11-(11)---(11)s===||-----------------|-------------------------||-----------------|-------------------------||-----------------|-------------------------|
|
|-----------------|-------------------------||-----------------|-------------------------||-1-1-1-1-1-1-1-1-|-1-1-1--1---1--1---1-----||-2-2-2-2-2-2-2-2-|-2-2-2--2---2--2---2-----||-2-2-2-2-2-2-2-2-|-2-2-2--2---2--2---2-----||-0-0-0-0-0-0-0-0-|-0-0-0--0---0--0---0--3--|
|-----------------|-------------------|-----------------|------------------||-----------------|-------------------|-----------------|------------------||-9---------------|-(9)---------------|---------9-9-----|-9-9--------------||-----------------|-------------------|-----------------|------------------||-----------------|-------------------|-----------------|------------------||-----------------|-------------------|-----------------|------------------|
|
|-----------------|-------------------|-----------------|------------------||-----------------|-------------------|-----------------|------------------||-5-5-5-5-5-5-5---|--2--2-2-2-2-2-2-2-|-1-1-1-1-1-1-1-1-|-1-1-1-1-1-1-1----||-5-5-5-5-5-5-5---|--2--2-2-2-2-2-2-2-|-2-2-2-2-2-2-2-2-|-2-2-2-2-2-2-2----||-3-3-3-3-3-3-3---|--0--0-0-0-0-0-0-0-|-2-2-2-2-2-2-2-2-|-2-2-2-2-2-2-2----||---------------0-|-------------------|-0-0-0-0-0-0-0-0-|-0-0-0-0-0-0-0-3--|
Gtr I|-----------------|-----------------|-----------------|------------------||-----------------|-----------------|-----------------|------------------||-5-5-5-5-5-5-5---|-2-2-2-2-2-2-2-2-|-1-1-1-1-1-1-1-1-|-1-1-1-1-1-1-1----||-5-5-5-5-5-5-5---|-2-2-2-2-2-2-2-2-|-2-2-2-2-2-2-2-2-|-2-2-2-2-2-2-2----||-3-3-3-3-3-3-3---|-0-0-0-0-0-0-0-0-|-2-2-2-2-2-2-2-2-|-2-2-2-2-2-2-2----||---------------0-|-----------------|-0-0-0-0-0-0-0-0-|-0-0-0-0-0-0-0-3--|
Gtr II|-15---------------|------------------||------------------|-19---------------||------------------|------------------||------------------|------------------||------------------|------------------||------------------|------------------|
|
| Gtr I|------------------|------------------||------------------|------------------||--5-5-5-5-5-5-5---|--2-2-2-2-2-2-2-2-||--5-5-5-5-5-5-5---|--2-2-2-2-2-2-2-2-||--3-3-3-3-3-3-3---|--0-0-0-0-0-0-0-0-||----------------0-|------------------|
D.S. al Coda|--------------------|---------------------|||-(19)---------------|-(19)----------------|||--------------------|---------------------|||--------------------|---------------------|||--------------------|---------------------|||--------------------|---------------------||
|
|--------------------|---------------------|||--------------------|---------------------|||---1--1-1-1-1-1-1-1-|---1--1-1-1-1-1-1----|||---2--2-2-2-2-2-2-2-|---2--2-2-2-2-2-2----|||---2--2-2-2-2-2-2-2-|---2--2-2-2-2-2-2----|||---0--0-0-0-0-0-0-0-|---0--0-0-0-0-0-0-3--||
Outro &||--15---------------|------------------|||o-12---------------|-12---------------|||-------------------|------------------|||-------------------|------------------|||o------------------|------------------|||-------------------|------------------|
|
||-------------------|------------------|||o------------------|------------------|||---5-5-5-5-5-5-5-5-|--7-7-7-7-7-7-7-7-|||---5-5-5-5-5-5-5-5-|--7-7-7-7-7-7-7-7-|||o--3-3-3-3-3-3-3-3-|--5-5-5-5-5-5-5-5-|||---3-3-3-3-3-3-3-3-|--5-5-5-5-5-5-5-5-|
|-12-12-12-12-12-12-12-12-|-12-12-12-12-12-12-12-12--|||-------------------------|-------------------------o|||-------------------------|--------------------------|||-------------------------|--------------------------|||-------------------------|-------------------------o|||-------------------------|--------------------------||
|
|-------------------------|--------------------------|||-------------------------|-------------------------o|||--1--1--1--1--1--1--1--1-|--1--1--1--1--1--1--1-----|||--2--2--2--2--2--2--2--2-|--2--2--2--2--2--2--2-----|||--2--2--2--2--2--2--2--2-|--2--2--2--2--2--2--2----o|||--0--0--0--0--0--0--0--0-|--0--0--0--0--0--0--0--3--||
||--15-15-15-15-15-15-15-15-|-17-17-17-17-17-17-17-17-|||o-------------------------|-------------------------|||--------------------------|-------------------------|||--------------------------|-------------------------|||o-------------------------|-------------------------|||--------------------------|-------------------------|
|
||--------------------------|-------------------------|||o-------------------------|-------------------------|||---5--5--5--5--5--5--5--5-|--7--7--7--7--7--7--7--7-|||---5--5--5--5--5--5--5--5-|--7--7--7--7--7--7--7--7-|||o--3--3--3--3--3--3--3--3-|--5--5--5--5--5--5--5--5-|||---3--3--3--3--3--3--3--3-|--5--5--5--5--5--5--5--5-|
1.,2.,3.|-16-16-16-16-16-16-16-16-|-16-16-16-16-16-16-16-16--|||-------------------------|-------------------------o|||-------------------------|--------------------------|||-------------------------|--------------------------|||-------------------------|-------------------------o|||-------------------------|--------------------------||
|
|-------------------------|--------------------------|||-------------------------|-------------------------o|||--1--1--1--1--1--1--1--1-|--1--1--1--1--1--1--1-----|||--2--2--2--2--2--2--2--2-|--2--2--2--2--2--2--2-----|||--2--2--2--2--2--2--2--2-|--2--2--2--2--2--2--2----o|||--0--0--0--0--0--0--0--0-|--0--0--0--0--0--0--0--3--||
4.|-17-17pb18-17pb19==17-17-17-17-17-|-17-17-17-17-17r\----*||----------------------------------|---------------------*||----------------------------------|---------------------*||----------------------------------|---------------------*||----------------------------------|---------------------*||----------------------------------|---------------------*|
|
|----------------------------------|---------------------*||----------------------------------|---------------------*||--1--1------1-------1--1--1--1--1-|--1--1--1--1--1------*||--2--2------2-------2--2--2--2--2-|--2--2--2--2--2------*||--2--2------2-------2--2--2--2--2-|--2--2--2--2--2------*||--0--0------0-------0--0--0--0--0-|--0--0--0--0--0------*|
Tablature Legend ---------------- h - hammer-on p - pull-off b - bend pb - pre-bend r - bend release (if no number after the r, then release immediately) /\ - slide into or out of (from/to "nowhere") s - legato slide S - shift slide - natural harmonic [n] - artificial harmonic n(n) - tapped harmonic ~ - vibrato tr - trill T - tap TP - trem. picking PM - palm muting \n/ - tremolo bar dip; n = amount to dip \n - tremolo bar down n/ - tremolo bar up /n\ - tremolo bar inverted dip = - hold bend; also acts as connecting device for hammers/pulls <> - volume swell (louder/softer) x - on rhythm slash represents muted slash o - on rhythm slash represents single note slash Misc Legend ----------- | - bar || - double bar ||o - repeat start o|| - repeat end *| - double bar (ending) : - bar (freetime) $ - Segno & - Coda Tempo markers - = BPM(8/16=s8/s16), where s8 = swing 8ths, s16 = swing 16ths *************************************************************************************** * Generated using Power Tab Editor by Brad Larsen - http://powertab.guitarnetwork.org * ***************************************************************************************
Tap to rate this tab
 
# A B C D E F G H I J K L M N O P Q R S T U V W X Y Z