Queens Of The Stone Age - You Think I Aint Worth A Dollar tab

         YOU THINK I AIN'T WORTH A DOLLAR, BUT I FEEL LIKE A MILLIONAIRE
                     As recorded by Queens Of The Stone Age
                    (From the 2002 Album SONGS FOR THE DEAF)

Words and Music by Josh Homme, Nick Oliveri & Mario Lalli
Transcribed by www.mikesguitarsite.co.uk

Gtr I (C F Bb Eb G C) - 'Josh Homme - Rhythm w/dist'
Gtr II (C F Bb Eb G C) - 'Josh Homme - Rhythm w/dist'
Gtr III (C F Bb Eb G C) - 'Josh Homme - Lead w/dist'

Intro Q=160 4/4 Gtr I|---||-----------------|--------------------||----------------||---||o----------------|-------------------o||----------------||---||-----------------|--------------------||----------------||-5-||--7--------------|-----------------5--||-7--------------||---||o----------------|-------------------o||----------------||---||----0-0-0-0-0--0-|-0-0-0-0-(0)-0-0----||---0-0-0-0-0--0-|
|-----------------|----------------|-------------------|||-----------------|----------------|-------------------|||-----------------|----------------|-------------------|||---------------7-|-5--------------|-----------------5-|||---------7-5-7---|----------------|-------------------|||-0-0-0-0---------|---0-0-0-0-0--0-|-0-0-0-0-(0)-0-0---||
Verse 1 Gtrs I, II 7x||-----------------|--------------------||----------------|||o----------------|-------------------o||----------------|||-----------------|--------------------||----------------|||--7--------------|-----------------5--||-7--------------|||o----------------|-------------------o||----------------|||----0-0-0-0-0--0-|-0-0-0-0-(0)-0-0----||---0-0-0-0-0--0-|
Interlude Gtr III ~~~~~~~|-----------------||----------------------|------------------------||-----------------||----------------------|------------------------||-----------------||----------------------|------------------------||-----------------||----------------------|------------------------||-----------------||----------------------|------------------------||-----------------||-------------10-12-10-|-12-10-12-12-(12)-------|
|
| Gtrs I, II|-----------------||----------------------|------------------------||-----------------||----------------------|------------------------||-----------------||----------------------|------------------------||---------7-7-7-5-||-(5)-5-5-5-5--5--5--5-|--5--5--5--5---7--7-7-5-||---------7-7-7-5-||-(5)-5-5-5-5--5--5--5-|--5--5--5--5---7--7-7-5-||-0-0-0-0-5-5-5-3-||-(3)-3-3-3-3--3--3--3-|--3--3--3--3---5--5-5-3-|
~~~~~~~~~~~|-------------------|----------------------------|-----------------------||-------------------|----------------------------|-----------------------||-------------------|---------12----14b14.5-12---|-(12)-----(12)\--------||-------------------|---12-14----14--------------|-----------------------||-------------------|----------------------------|-----------------------||-------------------|----------------------------|-----------------------|
|
|-------------------|----------------------------|-----------------------||-------------------|----------------------------|-----------------------||-------------------|----------------------------|-----------------------||-(5)-5-5-5-5-5-5-5-|-5--5--5--5--5--5-------5-5-|---7-------------------||-(5)-5-5-5-5-5-5-5-|-5--5--5--5--5--5-------5---|-----------------------||-(3)-3-3-3-3-3-3-3-|-3--3--3--3--3--3-------3---|------0-0---0---0-0--0-|
Gtrs I, II 3x|-------------------||-----------------|--------------------|||-------------------||o----------------|-------------------o|||-------------------||-----------------|--------------------|||-----------------5-||--7--------------|-----------------5--|||-------------------||o----------------|-------------------o|||-0-0-0-0-(0)-0-0---||----0-0-0-0-0--0-|-0-0-0-0-(0)-0-0----||
Verse 2|----------------|-----------------|----------------|-------------------||----------------|-----------------|----------------|-------------------||----------------|-----------------|----------------|-------------------||-7--------------|---------------7-|-5--------------|-----------------5-||----------------|---------7-5-7---|----------------|-------------------||---0-0-0-0-0--0-|-0-0-0-0---------|---0-0-0-0-0--0-|-0-0-0-0-(0)-0-0---|
1.,2.,3. 4.||-----------------|--------------------||-------------------||||o----------------|-------------------o||-------------------||||-----------------|--------------------||-------------------||||--7--------------|-----------------5--||----------7-7-7-5--||||o----------------|-------------------o||----------7-7-7-5--||||----0-0-0-0-0--0-|-0-0-0-0-(0)-0-0----||--0-0-0-0-5-5-5-3--||
Interlude Gtr III ~~|----------------------|-----------------------------------||----------------------|-----------------------------------||----------------------|-----------------------------------||----------------------|-----------------------------------||-------------------10-|-12b14==(12)r(12)p10---------------||-------------10-12----|---------------------12---12-------|
|
| Gtrs I, II|----------------------|-----------------------------------||----------------------|-----------------------------------||----------------------|-----------------------------------||-(5)-5-5-5-5--5--5--5-|----------5----5------5-5--7-7-7-5-||-(5)-5-5-5-5--5--5--5-|----------5----5------5-5--7-7-7-5-||-(3)-3-3-3-3--3--3--3-|----------3----3------3-3--5-5-5-3-|
|----------------------|--------------------------||----------------------|----------15s12-15s12-----||-------------------12s|=14s12s14-----------------||-------------12s14----|--------------------------||----------------------|--------------------------||----------------------|--------------------------|
|
|----------------------|--------------------------||----------------------|--------------------------||----------------------|--------------------------||-(5)-5-5-5-5--5--5--5-|--5--5--5--5--5--5--5-5---||-(5)-5-5-5-5--5--5--5-|--5--5--5--5--5--5--5-----||-(3)-3-3-3-3--3--3--3-|--3--3--3--3--3--3--3-----|
~~~~|-------------------||------------------|-----------------|||-(12)--------------||o-----------------|----------------o|||-------------------||------------------|-----------------|||-------------------||------------------|-----------------|||-------------------||o-----------------|----------------o|||-------------------||------------------|-----------------||
|
|-------------------||------------------|-----------------|||-------------------||o-----------------|----------------o|||-------------------||------------------|-----------------|||---7---------------||----5s7-----------|-----------------|||-------------------||o-------5s7-------|----------------o|||------0-0-0-0-0--0-||--0---------5s7-3s|=5-0-0-0-0-0--0--||
Gtr II|-----------------|----------------||-----------------|----------------||---7s9-----------|----------------||-------7s9-------|----------------||-----------7s9-5s|=7--------------||-0---------------|---0-0-0-0-0--0-|
|
| Gtr I|-----------------|----------------||-----------------|----------------||-----------------|----------------||---5s7-----------|----------------||-------5s7-------|----------------||-0---------5s7-3s|=5-0-0-0-0-0--0-|
Verse 3 ~~~|---------------------------||--------------------||---------------------------||--------------------||---7-9p7---7-9b11==(9)r====||=(9)----------------||---------9-----------------||--------------------||---------------------------||--------------------||-0-------------------------||-------0-0-0-0--0---|
|
|---------------------------||--------------------||---------------------------||--------------------||---------------------------||--------------------||---5s7---------------------||--------------------||---------5s7---------------||--------------------||-0------------------5s=7-3s||==5--0-0-0-0-0--0---|
||-----------------------|------------------||||o----------------------|-----------------o||||---------11s13---------|------------------||||----9s11-------11s13-9s|=11---------------||||o----------------------|-----------------o||||--0--------------------|----0-0-0-0-0--0--||
|
||-----------------------|------------------||||o----------------------|-----------------o||||----7s=9---------------|------------------||||----------7s=9---------|------------------||||o---------------7s=9-5s|==7--------------o||||--0--------------------|----0-0-0-0-0--0--||
|-----------------|-----------------||-----------------|-----------------||---7s9-----------|-----------------||-------7s9-------|-----------------||-----------7s9-5s|=7---------------||-0---------------|---0-0-0-0-0--0--|
|
|-----------------|-----------------||-----------------|-----------------||-----------------|-----------------||---5s7-----------|-----------------||-------5s7-------|-----------------||-0---------5s7-3s|=5-0-0-0-0-0--0--|
Interlude Gtr III|-----------------||-------------------------------||-----------------||-------------------------------||-----------------||-----------14pb16r==(14)-14-14-||-----------------||-------------------------------||-----------------||-------------------------------||-----------------||-------------------------------|
|
| Gtrs I, II|-----------------||-------------------------------||-----------------||-------------------------------||-----------------||-------------------------------||---5-7---7-7-7-5-||-(5)-5-5-5--5-----5---5---5----||---------7-7-7-5-||-(5)-5-5-5--5-----5---5---5----||-0-----0-5-5-5-3-||-(3)-3-3-3--3-----3---3---3----|
~~~~~~~|-------------------------|---------------------||-------------------------|---------------------||-12h14-12-(12)-----------|---------------------||-------------------------|---------------------||-------------------------|---------------------||-------------------------|---------------------|
|
|-------------------------|---------------------||-------------------------|---------------------||-------------------------|---------------------||--5-----5---5--5-5-7-7-5-|-(5)-5-5-5-5-5-5-5---||--5-----5---5--5-5-7-7-5-|-(5)-5-5-5-5-5-5-5---||--3-----3---3--3-3-5-5-3-|-(3)-3-3-3-3-3-3-3---|
3/4|------------------------|-----------|---------|---------||---15s17----------------|-----------|---------|---------||---------14s16----------|-----------|---------|---------||---------------14s16-12s|=14--------|---------|---------||------------------------|-----------|---------|---------||------------------------|-----------|---------|---------|
|
|------------------------|-----------|---------|---------||------------------------|-----------|---------|---------||------------------------|-----------|---------|---------||-5--5s=7----------------|-----------|---------|---------||-5--------5s=7----------|-----------|---------|---------||-3--------------5s=7--3-|--0--------|---------|------0--|
4/4 Gtrs I, II|------------------|-------------------|----------------|-------------------||------------------|-------------------|----------------|-------------------||------------------|-------------------|----------------|-------------------||------------------|-----------------5-|-7--------------|-----------------5-||------------------|-------------------|----------------|-------------------||-(0)-0-0-0-0-0--0-|-0-0-0-0-(0)-0-0---|---0-0-0-0-0--0-|-0-0-0-0-(0)-0-0---|
Gtr II|----------------|-----------------|----------------|-----------------------|||----------------|-----------------|----------------|--------------------15-|||----------------|-----------------|----------------|--------------12-------|||----------------|-----------------|----------------|-------12-14-----14----|||----------------|-----------------|----------------|-----------------------|||----------------|-----------------|----------------|-0-0-0-----------------||
|
| Gtrs I, II Gtr I|----------------|-----------------|----------------|-----------------------|||----------------|-----------------|----------------|-----------------------|||----------------|-----------------|----------------|-----------------------|||-7--------------|---------------7-|-5--------------|---------------------5-|||----------------|---------7-5-7---|----------------|-----------------------|||---0-0-0-0-0--0-|-0-0-0-0---------|---0-0-0-0-0--0-|-0-0-0--0-(0)--0--0----||
Outro 3x||----------------------------|------------------------||||o-(15)b17==(15)r------------|--------------------15-o||||----------------------------|--------------12--------||||----------------------------|-------12-14-----14-----||||o---------------------------|-----------------------o||||-----------------0-0-0-0--0-|-0-0-0------------------||
|
| 3x||----------------------------|------------------------||||o---------------------------|-----------------------o||||----------------------------|------------------------||||----7-----------------------|---------------------5--||||o---------------------------|-----------------------o||||-------------0---0-0-0-0--0-|-0-0-0--0-(0)--0--0-----||
|---------------------------|------------------||-(15)b17==(15)r------------|------------------||---------------------------|------------------||---------------------------|---------7-7-7-5--||---------------------------|---------7-7-7-5--||----------------0-0-0-0--0-|-0-0-0-0-5-5-5-3--|
|
|---------------------------|------------------||---------------------------|------------------||---------------------------|------------------||---7-----------------------|---------7-7-7-5--||---------------------------|---------7-7-7-5--||------------0---0-0-0-0--0-|-0-0-0-0-5-5-5-3--|
Gtr III|----------------------|----------------------------||----------------------|-------15b17====(15)r-------||-------------------12-|----------------------------||-------------12-14----|-14-12----------------------||----------------------|----------------------------||----------------------|----------------------------|
|
| Gtrs I, II|----------------------|----------------------------||----------------------|----------------------------||----------------------|----------------------------||-(5)-5-5-5-5--5--5--5-|--5--5--5-----5---7---7-7-5-||-(5)-5-5-5-5--5--5--5-|--5--5--5-----5---7---7-7-5-||-(3)-3-3-3-3--3--3--3-|--3--3--3-----3---5---5-5-3-|
|-------------------|------------------------|-----------*||-------------------|---15s17----------------|-----------*||-------------------|---------14s16----------|-----------*||-------------------|---------------14s16-12s|=14--------*||-------------------|------------------------|-----------*||-------------------|------------------------|-----------*|
|
|-------------------|------------------------|-----------*||-------------------|------------------------|-----------*||-------------------|------------------------|-----------*||-(5)-5-5-5-5-5-5-5-|-5--5s=7----------------|-----------*||-(5)-5-5-5-5-5-5-5-|-5--------5s=7----------|-----------*||-(3)-3-3-3-3-3-3-3-|-3--------------5s=7--3-|--0--------*|
Tablature Legend ---------------- h - hammer-on p - pull-off b - bend pb - pre-bend r - bend release (if no number after the r, then release immediately) /\ - slide into or out of (from/to "nowhere") s - legato slide S - shift slide - natural harmonic [n] - artificial harmonic n(n) - tapped harmonic ~ - vibrato tr - trill T - tap TP - trem. picking PM - palm muting \n/ - tremolo bar dip; n = amount to dip \n - tremolo bar down n/ - tremolo bar up /n\ - tremolo bar inverted dip = - hold bend; also acts as connecting device for hammers/pulls <> - volume swell (louder/softer) x - on rhythm slash represents muted slash o - on rhythm slash represents single note slash Misc Legend ----------- | - bar || - double bar ||o - repeat start o|| - repeat end *| - double bar (ending) : - bar (freetime) $ - Segno & - Coda Tempo markers - = BPM(8/16=s8/s16), where s8 = swing 8ths, s16 = swing 16ths *************************************************************************************** * Generated using Power Tab Editor by Brad Larsen - http://powertab.guitarnetwork.org * ***************************************************************************************
Tap to rate this tab
 
# A B C D E F G H I J K L M N O P Q R S T U V W X Y Z