Queens Of The Stone Age - No One Knows Acoustic tab

Intro

--8--8--8--8----|--4--4--4--4----|--x--x--x--x----|--5--5--5--5----|--3--3--3--3----|-------------8\-|
-6-6-4-4--6-6-4-4---| -6-6-4-4--6-6-4-4--------|(full)-x-x-x-5--x-x-x-5---| -x-x-x-5--x-x-x-5--------|-5-5-5-5--5-5-5-5---| (2x) -5-5-5-5--5-5-5-5--------|-3-3-3-3--3-3-3-3---| -3-3-3-3--3-3-3-3--------|------------------8\| -------------------------|
-6-6-4-4--6-6-4-4------|-x-x-x-5--x-x-x-5------|-5-5-5-5--5-5-5-5------|-3-3-3-3--3-3-3-3------|------------------0-2-3|
Verse
-------------------------------------------------------------------|---4---4---4---4h6-4-4------4---4---4h6-4-4-----4---4---4h6-4-4----|---5---5---5---5---5-5------5---5---5---5-5-----5---5---5---5-5----|---5---5---5---5---5-5------5---5---5---5-5-----5---5---5---5-5----|-3-3-3-3-3-3-3-3---3-3----3-3-3-3-3-3---3-3---3-3-3-3-3-3---3-3----|-------------------------------------------------------------------|
---------------------------------------------------------------------|---4---4---4h6-----------------------------------6-6-4-4--6-6-4-4----|---5---5---5-------------------------------------x-x-x-5--x-x-x-5----|---5---5---5---5-5-5-5-5-5-5-5-9-9-9-9-9-9-9-9---5-5-5-5--5-5-5-5----|-3-3-3-3-3-3---5-5-5-5-5-5-5-5-9-9-9-9-9-9-9-9-3-3-3-3-3--3-3-3-3----|---------------3-3-3-3-3-3-3-3-7-7-7-7-7-7-7-7--------------------8\-|
------------------------------------------------------------|-6-6-4-4--6-------4---4---4---4h6-4-4-----4---4---4h6-4-4---|-x-x-x-5--5-5b----5---5---5---5---5-5-----5---5---5---5-5---|-5-5-5-5--5-------5---5---5---5---5-5-----5---5---5---5-5---|-3-3-3-3--3-----3-3-3-3-3-3-3-3---3-3---3-3-3-3-3-3---3-3---|------------------------------------------------------------|
-------------------------------------------------------------------|---4---4---4h6-4-4-----4-4h6-4h6-----------------------------------|---5---5---5---5-5-----5-5---5-------------------------------------|---5---5---5---5-5-----5-5---5----5-5-5-5-5-5-5-5-9-9-9-9-9-9-9-9--|-3-3-3-3-3-3---3-3---3-3-3---3----5-5-5-5-5-5-5-5-9-9-9-9-9-9-9-9--|----------------------------------3-3-3-3-3-3-3-3-7-7-7-7-7-7-7-7--|
--------------------------------------|---6-6-4-4--6-6-4-4----6-6-4-4--6-----|---x-x-x-5--x-x-x-5----x-x-x-5--5-5b--|---5-5-5-5--5-5-5-5----5-5-5-5--5-----|-3-3-3-3-3--3-3-3-3----3-3-3-3--3-----|--------------------8\----------------|
Refrain A
---------------------------------------------------------------|---------------------------------------------------------------|-55-77-88-77-1010-88-1212-1010---------------------------------|-xx-xx-xx-xx-x-x--xx-x-x--x-x----------------------------------|-33-55-66-55-8-8--66-1010-8-8--5-5-5-5-5-5-5-5-5-5-5-5-5-5-5-5-|-------------------------------3-3-3-3-3-3-3-3-3-3-3-3-3-3-3-3-|
------------------------------------------------------------|------------------------------------------------------------|-88-77-55-33-55-77-88-77------------------------------------|-xx-xx-xx-xx-xx-xx-xx-xx--5-5-5-5-5-5-5-5-5-5-5-5-5-5-5-5---|-66-55-33-11-33-55-66-55--5-5-5-5-5-5-5-5-5-5-5-5-5-5-5-5---|--------------------------3-3-3-3-3-3-3-3-3-3-3-3-3-3-3-3---|
---------------------------------------------------------------|---------------------------------------------------------------|-55-77-88-77-1010-88-1212-1010---------------------------------|-xx-xx-xx-xx-x-x--xx-x-x--x-x----------------------------------|-33-55-66-55-8-8--66-1010-8-8--5-5-5-5-5-5-5-5-5-5-5-5-5-5-5-5-|-------------------------------3-3-3-3-3-3-3-3-3-3-3-3-3-3-3-3-|
Verse
-------------------------------------------------------------------|---4---4---4---4h6-4-4------4---4---4h6-4-4-----4---4---4h6-4-4----|---5---5---5---5---5-5------5---5---5---5-5-----5---5---5---5-5----|---5---5---5---5---5-5------5---5---5---5-5-----5---5---5---5-5----|-3-3-3-3-3-3-3-3---3-3----3-3-3-3-3-3---3-3---3-3-3-3-3-3---3-3----|-------------------------------------------------------------------|
---------------------------------------------------------------------|---4---4---4h6-----------------------------------6-6-4-4--6-6-4-4----|---5---5---5-------------------------------------x-x-x-5--x-x-x-5----|---5---5---5---5-5-5-5-5-5-5-5-9-9-9-9-9-9-9-9---5-5-5-5--5-5-5-5----|-3-3-3-3-3-3---5-5-5-5-5-5-5-5-9-9-9-9-9-9-9-9-3-3-3-3-3--3-3-3-3----|---------------3-3-3-3-3-3-3-3-7-7-7-7-7-7-7-7--------------------8\-|
------------------------------------------------------------|-6-6-4-4--6-------4---4---4---4h6-4-4-----4---4---4h6-4-4---|-x-x-x-5--5-5b----5---5---5---5---5-5-----5---5---5---5-5---|-5-5-5-5--5-------5---5---5---5---5-5-----5---5---5---5-5---|-3-3-3-3--3-----3-3-3-3-3-3-3-3---3-3---3-3-3-3-3-3---3-3---|------------------------------------------------------------|
-------------------------------------------------------------------|---4---4---4h6-4-4-----4-4h6-4h6-----------------------------------|---5---5---5---5-5-----5-5---5-------------------------------------|---5---5---5---5-5-----5-5---5----5-5-5-5-5-5-5-5-9-9-9-9-9-9-9-9--|-3-3-3-3-3-3---3-3---3-3-3---3----5-5-5-5-5-5-5-5-9-9-9-9-9-9-9-9--|----------------------------------3-3-3-3-3-3-3-3-7-7-7-7-7-7-7-7--|
--------------------------------------|---6-6-4-4--6-6-4-4----6-6-4-4--6-----|---x-x-x-5--x-x-x-5----x-x-x-5--5-5b--|---5-5-5-5--5-5-5-5----5-5-5-5--5-----|-3-3-3-3-3--3-3-3-3----3-3-3-3--3-----|--------------------8\----------------|
Refrain B
---------------------------------------------------------------|---------------------------------------------------------------|-55-77-88-77-1010-88-1212-1010---------------------------------|-xx-xx-xx-xx-x-x--xx-x-x--x-x----------------------------------|-33-55-66-55-8-8--66-1010-8-8--5-5-5-5-5-5-5-5-5-5-5-5-5-5-5-5-|-------------------------------3-3-3-3-3-3-3-3-3-3-3-3-3-3-3-3-|
------------------------------------------------------------|------------------------------------------------------------|-88-77-55-33-55-77-88-77------------------------------------|-xx-xx-xx-xx-xx-xx-xx-xx--5-5-5-5-5-5-5-5-5-5-5-5-5-5-5-5---|-66-55-33-11-33-55-66-55--5-5-5-5-5-5-5-5-5-5-5-5-5-5-5-5---|--------------------------3-3-3-3-3-3-3-3-3-3-3-3-3-3-3-3---|
---------------------------------------------------------------|---------------------------------------------------------------|-55-77-88-77-1010-88-1212-1010---------------------------------|-xx-xx-xx-xx-x-x--xx-x-x--x-x----------------------------------|-33-55-66-55-8-8--66-1010-8-8--5-5-5-5-5-5-5-5-5-5-5-5-5-5-5-5-|-------------------------------3-3-3-3-3-3-3-3-3-3-3-3-3-3-3-3-|
---------------------------------------------------------------|---------------------------------------------------------------|---------------------------------------------------------------|-------------------------------------------------------4-------|-101010101010101010101010101010101010101010101010--5-6-2-5-3-5-|-8-8-8-8-8-8-8-8-8-8-8-8-8-8-8-8-8-8-8-8-8-8-8-8---3-4---3-1-3-|
---------------------------------------------------------------|---------------------------------------------------------------|---------------------------------------------------------------|-------------------------------------------------------4-------|-101010101010101010101010101010101010101010101010--5-6-2-5-3-5-|-8-8-8-8-8-8-8-8-8-8-8-8-8-8-8-8-8-8-8-8-8-8-8-8---3-4---3-1-3-|
----------------------------------------|----------------------------------------|----------------------------------------|-----4------------4------------4--------|-5-6-2-5-3-5--5-6-2-5-3-5--5-6-2-5-3-5--|-3-4---3-1-3--3-4---3-1-3--3-4---3-1-3--|
Solo (i got creative :P )
---------------------------------------------------------------|-0---0-0---0-0---0-0---0--------0--0--0--0--0-----0--0--0--0---|-2/4-4-4-4/6-6/7-7-7/9-9-/-11~--14-14\11/18\14-11-11/16\11-11--|---------------------------------------------------------------|---------------------------------------------------------------|---------------------------------------------------------------|
-----------------------------------------------------------------|-0---------------------------------------------------------------|-9h11^----9p11\9-7-9~----7p9p7-6-7~----6p7p6-4-7---6h7p6p4-6-11~-|-----------------------------------------------------------------|-----------------------------------------------------------------|-----------------------------------------------------------------|
----------------------------------------------------------------|-------------------------------------14p11--------14p11---------|----7--11b~-----7--11b~-----7--11b~-------11br---------11br-----|-9-----------9-----------9--------------------12-----------12---|----------------------------------------------------------------|----------------------------------------------------------------|
---------------------------|-14p11--------14p11--------|------11br---------11br----|----------12-----------12--|---------------------------|---------------------------|
Verse
---------------------------------------------------------|---4---4---4---4h6-4-4------4---4---4h6------------------|---5---5---5---5---5-5------5---5---5--------------------|---5---5---5---5---5-5------5---5---5--------------------|-3-3-3-3-3-3-3-3---3-3----3-3-3-3-3-3----5-5-5-5-5-5-5-5-|-----------------------------------------3-3-3-3-3-3-3-3-|
-----------------|-----------------|-----------------|-----------------|-9-9-9-9-9-9-9-9-|-7-7-7-7-7-7-7-7-|
--------------------------------------------------------|---6-6-4-4--6-6-4-4--3----6-6-4-4--4-4------------------|---x-x-x-5--x-x-x-5--3----x-x-x-5--5-x------------------|---5-5-5-5--5-5-5-5-------5-5-5-5--5-5------------------|-3-3-3-3-3--3-3-3-3-----3-3-3-3-3--3-3--5-5-5-5-5-5-5-5-|----------------------------------------3-3-3-3-3-3-3-3-|
-----------------|-----------------|-----------------|-----------------|-9-9-9-9-9-9-9-9-|-7-7-7-7-7-7-7-7-|
End
-8-8-8-8--|-4-4-4-4--|-x-x-x-x--|-5-5-5-5--|-3-3-3-3--|----------|
This version is just my own creation !!! Dont try to compare these tabs with some acoustic live versions from josh homme and co :P but all in all it nearly sounds like that. And i didnt want to change my acoustic guitar tuning thats why i tried to make it that way !
Tap to rate this tab
 
# A B C D E F G H I J K L M N O P Q R S T U V W X Y Z