Quo Vadis - Point Of No Return Pt I - Mute Requiem tab

Quo Vadis - Point Of No Return; Mute Requiem

Tabbed by: Patrick Chamberland
Email: sk8_pat13@hotmail.com


Bart Frydrychowicz:

E||------------------------------|------------------------------|B||------------------------------|------------------------------|G||------------------------------|------------------------------|D||------------------------------|------------------------------|A||---------9h10h9---------------|--9h10h9----------------------|E||--0-0-0----------12t---0-0-0--|----------12t---0-0-0--0-0-0--|
------------------------------|-----------------------------|------------------------------|-----------------------------|------------------------------|-----------------------------|------------------------------|-----------------------------|---------9h12h9---------------|---------------3h2h0---------|--0-0-0----------11t---0-0-0--|--8h11h8/-7-----------3h2h0--|
------------------------------|------------------------------|------------------------------|------------------------------|------------------------------|------------------------------|------------------------------|------------------------------|---------9h10h9---------------|--9h10h9----------------------|--0-0-0----------12t---0-0-0--|----------12t---0-0-0--0-0-0--|
------------------------------|-----------------------------|------------------------------|-----------------------------|------------------------------|-----------------------------|------------------------------|-----------------------------|---------9h12h9---------------|---------------3h2h0---------|--0-0-0----------11t---0-0-0--|--8h11h8/-7-----------3h2h0--|
------------------------------|------------------------------|------------------------------|------------------------------|------------------------------|------------------------------|------------------------------|------------------------------|---------9h10h9---------------|--9h10h9----------------------|--0-0-0----------12t---0-0-0--|----------12t---0-0-0--0-0-0--|
------------------------------|-----------------------------|------------------------------|-----------------------------|------------------------------|-----------------------------|------------------------------|-----------------------------|---------9h12h9---------------|---------------3h2h0---------|--0-0-0----------11t---0-0-0--|--8h11h8/-7-----------3h2h0--|
------------------------------|------------------------------|------------------------------|------------------------------|------------------------------|------------------------------|------------------------------|------------------------------|---------9h10h9---------------|--9h10h9----------------------|--0-0-0----------12t---0-0-0--|----------12t---0-0-0--0-0-0--|
------------------------------|-----------------------------|------------------------------|-----------------------------|------------------------------|-----------------------------|------------------------------|-----------------------------|---------9h12h9---------------|---------------3h2h0---------|--0-0-0----------11t---0-0-0--|--8h11h8/-7-----------3h2h0--|
------------------------------|------------------------------|------------------------------|------------------------------|------------------------------|------------------------------|------------------------------|------------------------------|---------9h10h9---------------|--9h10h9----------------------|--0-0-0----------12t---0-0-0--|----------12t---0-0-0--0-0-0--|
------------------------------|-----------------------------|------------------------------|-----------------------------|------------------------------|-----------------------------|------------------------------|-----------------------------|---------9h12h9---------------|---------------3h2h0---------|--0-0-0----------11t---0-0-0--|--8h11h8/-7-----------3h2h0--|
------------------------------|------------------------------|------------------------------|------------------------------|------------------------------|------------------------------|------------------------------|------------------------------|---------9h10h9---------------|--9h10h9----------------------|--0-0-0----------12t---0-0-0--|----------12t---0-0-0--0-0-0--|
------------------------------|-----------------------------|------------------------------|-----------------------------|------------------------------|-----------------------------|------------------------------|-----------------------------|---------9h12h9---------------|---------------3h2h0---------|--0-0-0----------11t---0-0-0--|--8h11h8/-7-----------3h2h0--|
---------------|-------------------------------------|---------------|-------------------------------------|---------------|-------------------------------------|--2------------|-------------------------------------|--2------------|--10------------14------------10--9--|--0------------|------12-12-12------12-12-12---------|
--------------------------------------|--------------------------------------|--------------------------------------|--------------------------------------|------------9------------9------------|--12-12-12-----12-12-12-----12-12-12--|
--------------------------------------|--------------------------------------|--------------------------------------|--------------------------------------|--12------------12------------9h10h9--|------10-10-10------10-10-10----------|
------------------------------|------------------------------|------------------------------|------------------------------|------------------------------|--12t-0-0-0--0--0-0-0--0-0-0--|
-------------------------------------|-------------------------------------|-------------------------------------|-------------------------------------|--10------------14------------10--9--|------12-12-12------12-12-12---------|
--------------------------------------|--------------------------------------|--------------------------------------|--------------------------------------|------------9------------9------------|--12-12-12-----12-12-12-----12-12-12--|
--------------------------------------|--------------------------------------|--------------------------------------|--------------------------------------|--12------------12------------9h10h9--|------10-10-10------10-10-10----------|
------------------------------|------------------------------|------------------------------|------------------------------|------------------------------|--12t-0-0-0--0--0-0-0--0-0-0--|
----------------------------------|----------------------------------|----------------------------------|----------------------------------|--10---------10---------10h12h14--|------0-0-0------0-0-0------------|
-------------------------------|--------------------------------|-------------------------------|--------------------------------|-------------------------------|--------------------------------|-------------------------------|--------------------------------|--9---------9---------9h10h12--|--12---------12---------9h10h9--|-----0-0-0-----0-0-0-----------|------0-0-0------0-0-0----------|
---------------------------------|---------------------------------|---------------------------------|---------------------------------|-----------------------10h12h14--|--12--0-0-0--0--0-0-0------------|
----------------------------------|----------------------------------|----------------------------------|----------------------------------|--10---------10---------10h12h14--|------0-0-0------0-0-0------------|
-------------------------------|------------------------------|-------------------------------|------------------------------|-------------------------------|------------------------------|-------------------------------|------------------------------|--9---------9---------9h10h12--|--12---------12---------12----|-----0-0-0-----0-0-0-----------|------0-0-0------0-0-0--------|
-----------------------------|----------------------------|-----------------------------|----------------------------|-----------------------------|----------------------------|-----------------------------|----------------------------|-------------9---------9-----|--7---------9---------9-----|--7-7-7-7-7-----7-7-7-----7--|-----7-7-7-----7-7-7-----7--|
--------------------------------|--------------------------------|--------------------------------|--------------------------------|--10---------10---------9h10h9--|------0-0-0------0-0-0----------|
--------------------------------|--------------------------------|--------------------------------|--------------------------------|--10---------10---------9h10h9--|------0-0-0------0-0-0----------|
----------------------------------|----------------------------------|----------------------------------|----------------------------------|--12---------12---------12h15h14--|------0-0-0------0-0-0------------|
----------------------------------|----------------------------------|----------------------------------|------------------------------12--|--9---------9h10h12--9h10h12------|-----0-0-0------------------------|
--------------------------------|--------------------------------|--------------------------------|--------------------------------|--10---------10---------9h10h9--|------0-0-0------0-0-0----------|
--------------------------------|-------------------------------|--------------------------------|-------------------------------|--------------------------------|-------------------------------|--------------------------------|-------------------------------|--10---------10---------9h10h9--|--12---------12---------12-----|------0-0-0------0-0-0----------|------0-0-0------0-0-0------0--|
-----------------------------|-------------------|-----------------------------|-------------------|-----------------------------|-------------------|-----------------------------|-------------------|--9---------10---------9-----|--2----------------|-----0-0-0------0-0-0-----0--|--0----------------|
-------------------|-------------------|------------------------|-------------------|-------------------|------------------------|-------------------|-------------------|------------------------|-------------------|--7----------------|------------------------|--5----------------|--5----------------|--5--5--5--7----5--7----|--3----------------|-------------------|------------------------|
--------------------------|--------------------------|--------------------------|--------------------------|--------------------------|--------------------------|-----------5--------4h-5--|--------------------5h-7--|--7-----------------------|--5--------5--------------|-----0--0-----0--0--------|--3--3--3--3--3--3--------|
---------------------------|---------------------------|---------------------------|---------------------------|---------------------------|---------------------------|--7---------7--------7-----|--4---------5---------4----|-----5-5-5-----5--5-----5--|-----5-5-5-----5-5-5-------|---------------------------|---------------------------|
-------------------------------|----------------------------|-------------------------------|----------------------------|-------------------------------|----------------------------|-------------------------------|----------------------------|------------------2------------|----------2------------2----|--0-0-0-0-0-0-0-0-0----0-0-0-0-|--0-0-0-0-0----0-0-0-0-0----|
-----------------------|-----------------------|-----------------------|-----------------------|-----------------------|-----------------------|-----------------------|-----------------------|----------3------------|------3--3--0h-2h-0----|--0-0-0-0-1------------|------1--1-------------|
-------------------------------|----------------------------|-------------------------------|----------------------------|-------------------------------|----------------------------|-------------------------------|----------------------------|------------------2------------|----------2------------2----|--0-0-0-0-0-0-0-0-0----0-0-0-0-|--0-0-0-0-0----0-0-0-0-0----|
-----------------------|-----------------------|-----------------------|-----------------------|-----------------------|-----------------------|-----------------------|-----------------------|----------3------------|------3--3--0h-2h-0----|--0-0-0-0-1------------|------1--1-------------|
-------------------------------|----------------------------|-------------------------------|----------------------------|-------------------------------|----------------------------|------------------5------------|----------5------------5----|------------------7------------|----------7------------7----|--0-0-0-0-0-0-0-0------0-0-0-0-|--0-0-0-0------0-0-0-0------|
-----------------------|-----------------------|-----------------------|-----------------------|-----------------------|-----------------------|----------2------------|------4--4--5h-7--3~---|----------3------------|------5--5-------------|--0-0-0-0--------------|-----------------------|
-------------------------------|----------------------------|-------------------------------|----------------------------|-------------------------------|----------------------------|------------------5------------|----------5------------5----|------------------7------------|----------7------------7----|--0-0-0-0-0-0-0-0------0-0-0-0-|--0-0-0-0------0-0-0-0------|
-----------------------|-----------------------|-----------------------|-----------------------|-----------------------|-----------------------|----------2------------|------4--4--5/-7--7----|----------3------------|------5--5--7/-9--9----|--0-0-0-0--------------|-----------------------|
-------------------------------|----------------------------|-------------------------------|----------------------------|-------------------------------|----------------------------|-------------------------------|----------------------------|------------------2------------|----------2------------2----|--0-0-0-0-0-0-0-0-0----0-0-0-0-|--0-0-0-0-0----0-0-0-0-0----|
-----------------------|-----------------------|-----------------------|-----------------------|-----------------------|-----------------------|-----------------------|-----------------------|----------3------------|------3--3--0h-2h-0----|--0-0-0-0-1------------|------1--1-------------|
-------------------------------|----------------------------|-------------------------------|----------------------------|-------------------------------|----------------------------|-------------------------------|----------------------------|------------------2------------|----------2------------2----|--0-0-0-0-0-0-0-0-0----0-0-0-0-|--0-0-0-0-0----0-0-0-0-0----|
-----------------------|-----------------------|-----------------------|-----------------------|-----------------------|-----------------------|-----------------------|-----------------------|----------3------------|------3--3--0h-2h-0----|--0-0-0-0-1------------|------1--1-------------|
-------------------------------|----------------------------|-------------------------------|----------------------------|-------------------------------|----------------------------|------------------5------------|----------5------------5----|------------------7------------|----------7------------7----|--0-0-0-0-0-0-0-0------0-0-0-0-|--0-0-0-0------0-0-0-0------|
-----------------------|-----------------------|-----------------------|-----------------------|-----------------------|-----------------------|----------2------------|------4--4--5h-7--3~---|----------3------------|------5--5-------------|--0-0-0-0--------------|-----------------------|
-------------------------------|----------------------------|-------------------------------|----------------------------|-------------------------------|----------------------------|------------------5------------|----------5------------5----|------------------7------------|----------7------------7----|--0-0-0-0-0-0-0-0------0-0-0-0-|--0-0-0-0------0-0-0-0------|
-----------------------|-----------------------|-----------------------|-----------------------|-----------------------|-----------------------|----------2------------|------4--4--5/-7--7----|----------3------------|------5--5--7/-9--9----|--0-0-0-0--------------|-----------------------|
-------------------------------------|-------------------------------------|-------------------------------------|-------------------------------------|--10------------14------------10--9--|------12-12-12------12-12-12---------|
--------------------------------------|--------------------------------------|--------------------------------------|--------------------------------------|------------9------------9------------|--12-12-12-----12-12-12-----12-12-12--|
--------------------------------------|--------------------------------------|--------------------------------------|--------------------------------------|--12------------12------------9h10h9--|------10-10-10------10-10-10----------|
------------------------------|------------------------------|------------------------------|------------------------------|------------------------------|--12t-0-0-0--0--0-0-0--0-0-0--|
-------------------------------------|-------------------------------------|-------------------------------------|-------------------------------------|--10------------14------------10--9--|------12-12-12------12-12-12---------|
--------------------------------------|--------------------------------------|--------------------------------------|--------------------------------------|------------9------------9------------|--12-12-12-----12-12-12-----12-12-12--|
--------------------------------------|--------------------------------------|--------------------------------------|--------------------------------------|--12------------12------------9h10h9--|------10-10-10------10-10-10----------|
------------------------------|------------------------------|------------------------------|------------------------------|------------------------------|--12t-0-0-0--0--0-0-0--0-0-0--|
----------------------------------|----------------------------------|----------------------------------|----------------------------------|--10---------10---------10h12h14--|------0-0-0------0-0-0------------|
-------------------------------|--------------------------------|-------------------------------|--------------------------------|-------------------------------|--------------------------------|-------------------------------|--------------------------------|--9---------9---------9h10h12--|--12---------12---------9h10h9--|-----0-0-0-----0-0-0-----------|------0-0-0------0-0-0----------|
---------------------------------|---------------------------------|---------------------------------|---------------------------------|-----------------------10h12h14--|--12--0-0-0--0--0-0-0------------|
----------------------------------|----------------------------------|----------------------------------|----------------------------------|--10---------10---------10h12h14--|------0-0-0------0-0-0------------|
-------------------------------|------------------------------|-------------------------------|------------------------------|-------------------------------|------------------------------|-------------------------------|------------------------------|--9---------9---------9h10h12--|--12---------12---------12----|-----0-0-0-----0-0-0-----------|------0-0-0------0-0-0--------|
-----------------------------|----------------------------|-----------------------------|----------------------------|-----------------------------|----------------------------|-----------------------------|----------------------------|-------------9---------9-----|--7---------9---------9-----|--7-7-7-7-7-----7-7-7-----7--|-----7-7-7-----7-7-7-----7--|
------------------------------|------------------------------|------------------------------|------------------------------|------------------------------|------------------------------|------------------------------|------------------------------|---------9h10h9---------------|--9h10h9----------------------|--0-0-0----------12t---0-0-0--|----------12t---0-0-0--0-0-0--|
------------------------------|-----------------------------|------------------------------|-----------------------------|------------------------------|-----------------------------|------------------------------|-----------------------------|---------9h12h9---------------|---------------3h2h0---------|--0-0-0----------11t---0-0-0--|--8h11h8/-7-----------3h2h0--|
------------------------------|------------------------------|------------------------------|------------------------------|------------------------------|------------------------------|------------------------------|------------------------------|---------9h10h9---------------|--9h10h9----------------------|--0-0-0----------12t---0-0-0--|----------12t---0-0-0--0-0-0--|
------------------------------|-----------------------------|------------------------------|-----------------------------|------------------------------|-----------------------------|------------------------------|-----------------------------|---------9h12h9---------------|---------------3h2h0---------|--0-0-0----------11t---0-0-0--|--8h11h8/-7-----------3h2h0--|
------------------------------|------------------------------|------------------------------|------------------------------|------------------------------|------------------------------|------------------------------|------------------------------|---------9h10h9---------------|--9h10h9----------------------|--0-0-0----------12t---0-0-0--|----------12t---0-0-0--0-0-0--|
------------------------------|-----------------------------|------------------------------|-----------------------------|------------------------------|-----------------------------|------------------------------|-----------------------------|---------9h12h9---------------|---------------3h2h0---------|--0-0-0----------11t---0-0-0--|--8h11h8/-7-----------3h2h0--|
------------------------------|------------------------------|------------------------------|------------------------------|------------------------------|------------------------------|------------------------------|------------------------------|---------9h10h9---------------|--9h10h9----------------------|--0-0-0----------12t---0-0-0--|----------12t---0-0-0--0-0-0--|
------------------------------|-----------------------------|------------------------------|-----------------------------|------------------------------|-----------------------------|------------------------------|-----------------------------|---------9h12h9---------------|---------------3h2h0---------|--0-0-0----------11t---0-0-0--|--8h11h8/-7-----------3h2h0--|
-------------------|-------------------|-------------------|-------------------|-------------------|-------------------|-------------------|-------------------|-------------------|-------------------|-------------------|--7----------------|--2----------------|--5----------------|--5----------------|--0----------------|--3----------------|-------------------|
------------------------|---------------------------|------------------------|---------------------------|------------------------|---------------------------|--4--4--4--5----4/-5----|---------------------4h-5--|--5--5--5--7----5/-7----|--7--------10--------------|------------------------|-----0--0------0--0--------|
--------------------------|---------------------------|--------------------------|---------------------------|--------------------------|---------------------------|--------------------5h-7--|--7---------7--------7-----|--5--------5--------------|-----5-5-5-----5--5-----5--|--3--3--3--3--3--3--------|---------------------------|
---------------------------|-------------------|---------------------------|-------------------|---------------------------|-------------------|--4---------5---------4----|-------------------|-----5-5-5-----5-5-5-------|--2----------------|---------------------------|--0----------------|
-------------------|-------------------|------------------------|-------------------|-------------------|------------------------|-------------------|-------------------|------------------------|-------------------|--7----------------|--4--4--4--5----4/-5----|--5----------------|--5----------------|--5--5--5--7----5/-7----|--3----------------|-------------------|------------------------|
---------------------------|--------------------------|---------------------------|--------------------------|---------------------------|--------------------------|---------------------4h-5--|--------------------5h-7--|--7--------10--------------|--5--------5--------------|-----0--0------0--0--------|--3--3--3--3--3--3--------|
---------------------------|---------------------------|---------------------------|---------------------------|---------------------------|---------------------------|--7---------7--------7-----|--4---------5---------4----|-----5-5-5-----5--5-----5--|-----5-5-5-----5-5-5-------|---------------------------|---------------------------|
-------------------|--------------------|-------------------|--------------------|-------------------|--------------------|--5----------------|----------5/---x----|--7----------------|----------7/---x----|-------------------|--------------------|
-------------------------------|----------------------------|-------------------------------|----------------------------|-------------------------------|----------------------------|------------------5------------|----------5------------5----|------------------7------------|----------7------------7----|--0-0-0-0-0-0-0-0------0-0-0-0-|--0-0-0-0------0-0-0-0------|
-----------------------|-----------------------|-----------------------|-----------------------|-----------------------|-----------------------|----------2------------|------4--4--5h-7--3~---|----------3------------|------5--5-------------|--0-0-0-0--------------|-----------------------|
-------------------------------|----------------------------|-------------------------------|----------------------------|-------------------------------|----------------------------|------------------5------------|----------5------------5----|------------------7------------|----------7------------7----|--0-0-0-0-0-0-0-0------0-0-0-0-|--0-0-0-0------0-0-0-0------|
-----------------------|-----------------------|-----------------------|-----------------------|-----------------------|-----------------------|----------2------------|------4--4--5/-7--7----|----------3------------|------5--5--7/-9--9----|--0-0-0-0--------------|-----------------------|
----------------------------------|----------------------------------|----------------------------------|----------------------------------|
--7h8h7h8h7h8h7h8h7h8h7h8h7h8h7h8h|----------------------------------|
----------------------------------|--------------------------|----------------------------------|--------------------------|----------------------------------|--------------------------|----------------------------------|--------------------------|--7h8h7h8h7h8h7h8h7h8h7h8h7h8h7h8-|--2--2--2--2--2--2--2--2--|----------------------------------|--0--0--0--0--0--0--0--0--|
--------------------------|-----------------------|--------------------------|-----------------------|--------------------------|-----------------------|--------------------------|-----------------------|--2--2--2--2--2--2--2--2--|--2--2--2--2--2--------|--0--0--0--0--0--0--0--0--|--0--0--0--0--0--------|
---------------------|---------------------|---------------------|---------------------|---------------------|---------------------|--5------------------|--5-------------4----|-------7-------------|---------------------|----------------0----|-----------0---------|
-------------------------|---------------------|-------------------------|---------------------|-------------------------|---------------------|-----------4h-5h-4-------|----------------4----|--------------------7----|--2--------2---------|------0------------------|---------------------|
---------------------|--------------------|---------------------|---------------------|--------------------|---------------------|---------------------|--------------------|---------------------|----------------5----|-----------4--------|-------4h---5--------|--2--------2----2----|------2----2--------|--2------------------|---------------------|--------------------|---------------------|
-----------------------|---------------------|-----------------------|---------------------|-----------------------|---------------------|-----------------------|--5------------------|--2--2--2--2--2--------|-------7-------------|--0--0--0--0--0--------|----------------0----|
---------------------|-------------------------|---------------------|-------------------------|---------------------|-------------------------|--5-------------4----|-----------4h-5h-4-------|---------------------|--------------------7----|-----------0---------|------0------------------|
---------------------|---------------------|--------------------|---------------------|---------------------|--------------------|---------------------|---------------------|--------------------|----------------4----|----------------5----|-----------4--------|--2--------2---------|--2--------2----2----|------2----2--------|---------------------|---------------------|--------------------|
---------------------|----------------------|------------------|---------------------|----------------------|------------------|---------------------|--2--2--4--5~---------|------------------|-------4h---5--------|----------------------|------------------|--2------------------|----------------------|------------------|---------------------|----------------------|------------------|
---------------------------------------|---------------------------------------|--9h-10h-9--7h-9h-7--5h-7h-5--4h-5h-4--|---------------------------------------|---------------------------------------|---------------------------------------|
---------------------------------------|---------------------------------------|--9h-10h-9--7h-9h-7--5h-7h-5--4h-5h-4--|---------------------------------------|---------------------------------------|---------------------------------------|
--------------------------|------------------|--------------------------|------------------|--5h-7h-5--4--5--7~-------|------------------|--------------------------|------------------|--------------------------|------------------|--------------------------|------------------|
------------------------|------------------|------------------------|------------------|--10h-9--9h-7--5~-------|------------------|------------------------|------------------|------------------------|------------------|------------------------|------------------|
--13h-12----------------13h-12--|----------------13h-12--------|----------13h-12----------------|--13h-12----------------13----|------------------14------------|----------14------------------|--------------------------------|------------------------------|--------------------------------|------------------------------|--------------------------------|------------------------------|
--13h-12----------------13h-12--|----------------13h-12--------|----------13h-12----------------|--13h-12----------------13----|------------------14------------|----------14------------------|--------------------------------|------------------------------|--------------------------------|------------------------------|--------------------------------|------------------------------|
--13h-10----------------13h-10--|----------------13h-10--------|----------13h-12--10------------|--13h-12--10------------13----|--------------------------------|------------------------------|--------------------------------|------------------------------|--------------------------------|------------------------------|--------------------------------|------------------------------|
--13h-10----------------13h-10--|----------------13h-10--------|----------13h-12--10------------|--13h-12--10------------13----|--------------------------------|------------------------------|--------------------------------|------------------------------|--------------------------------|------------------------------|--------------------------------|------------------------------|
--------------------------------|--------------------------------|--2----4----5----2----4----5----|--------------------------------|--------------------------------|--------------------------------|
--------------------------------|--------------------------------|--2----4----5----2----4----5----|--------------------------------|--------------------------------|--------------------------------|
--------------------------------|--------------------------------|--4----5----7----4----5----7----|--------------------------------|--------------------------------|--------------------------------|
--------------------------------|--------------------------------|--4----5----7----4----5----7----|--------------------------------|--------------------------------|--------------------------------|
--------------------------------|--------------------------------|--0----2----4----0----2----4----|--------------------------------|--------------------------------|--------------------------------|
--------------------------------|--------------------------------|--0----2----4----0----2----4----|--------------------------------|--------------------------------|--------------------------------|
--------------------------------|--------------------------------|--0----2----4----0----2----4----|--------------------------------|--------------------------------|--------------------------------|
--------------------------------|--------------------------------|--0----2----4----5----4----2----|--------------------------------|--------------------------------|--------------------------------|
--------------------------------|--------------------------------|--2----4----5----2----4----5----|--------------------------------|--------------------------------|--------------------------------|
--------------------------------|--------------------------------|--2----4----5----2----4----5----|--------------------------------|--------------------------------|--------------------------------|
--------------------------------|--------------------------------|--4----5----7----4----5----7----|--------------------------------|--------------------------------|--------------------------------|
--------------------------------|--------------------------------|--4----5----7----4----5----7----|--------------------------------|--------------------------------|--------------------------------|
--------------------------------|--------------------------------|--0----2----4----0----2----4----|--------------------------------|--------------------------------|--------------------------------|
--------------------------------|--------------------------------|--0----2----4----0----2----4----|--------------------------------|--------------------------------|--------------------------------|
--------------------------------|--------------------------------|--0----2----4----0----2----4----|--------------------------------|--------------------------------|--------------------------------|
--------------------------------|------------------||--------------------------------|------------------||--0----2----4----5----4----2----|------------------||--------------------------------|------------------||--------------------------------|------------------||--------------------------------|------------------||
Arie Itman:
E||------------------------|------------------------|B||------------------------|------------------------|G||------------------------|------------------------|D||------------------------|------------------------|A||------------------------|------------------------|E||--0-0-0----------0-0-0--|----------0-0-0--0-0-0--|
------------------------|------------------------|------------------------|------------------------|------------------------|------------------------|------------------------|------------------------|------------------------|----------3h2h0---------|--0-0-0----------0-0-0--|-----------------3h2h0--|
------------------------|------------------------|------------------------|------------------------|------------------------|------------------------|------------------------|------------------------|------------------------|------------------------|--0-0-0----------0-0-0--|----------0-0-0--0-0-0--|
------------------------|------------------------|------------------------|------------------------|------------------------|------------------------|------------------------|------------------------|------------------------|----------3h2h0---------|--0-0-0----------0-0-0--|-----------------3h2h0--|
------------------------------|------------------------------|------------------------------|------------------------------|------------------------------|------------------------------|------------------------------|------------------------------|---------9h10h9---------------|--9h10h9----------------------|--0-0-0----------12t---0-0-0--|----------12t---0-0-0--0-0-0--|
------------------------------|-----------------------------|------------------------------|-----------------------------|------------------------------|-----------------------------|------------------------------|-----------------------------|---------9h12h9---------------|---------------3h2h0---------|--0-0-0----------11t---0-0-0--|--8h11h8/-7-----------3h2h0--|
------------------------------|------------------------------|------------------------------|------------------------------|------------------------------|------------------------------|------------------------------|------------------------------|---------9h10h9---------------|--9h10h9----------------------|--0-0-0----------12t---0-0-0--|----------12t---0-0-0--0-0-0--|
------------------------------|-----------------------------|------------------------------|-----------------------------|------------------------------|-----------------------------|------------------------------|-----------------------------|---------9h12h9---------------|---------------3h2h0---------|--0-0-0----------11t---0-0-0--|--8h11h8/-7-----------3h2h0--|
-----------------------------|-----------------------------|-----------------------------|-----------------------------|-----------------------------|-----------------------------|---------7h9h7---------------|--7h9h7----------------------|----------------10t----------|---------10t-----------------|--0-0-0---------------0-0-0--|---------------0-0-0--0-0-0--|
-----------------------------|-----------------------------|-----------------------------|-----------------------------|-----------------------------|-----------------------------|---------7h10h7--------------|-----------------------------|-----------------9t----------|---------------3h2h0---------|--0-0-0---------------0-0-0--|--8h11h8/-7-----------3h2h0--|
-----------------------------|-----------------------------|-----------------------------|-----------------------------|-----------------------------|-----------------------------|---------7h9h7---------------|--7h9h7----------------------|----------------10t----------|---------10t-----------------|--0-0-0---------------0-0-0--|---------------0-0-0--0-0-0--|
-----------------------------|-----------------------------|-----------------------------|-----------------------------|-----------------------------|-----------------------------|---------7h10h7--------------|-----------------------------|-----------------9t----------|---------------3h2h0---------|--0-0-0---------------0-0-0--|--8h11h8/-7-----------3h2h0--|
---------------|-------------------------------------|---------------|-------------------------------------|---------------|-------------------------------------|--2------------|-------------------------------------|--2------------|--10------------14------------10--9--|--0------------|------12-12-12------12-12-12---------|
--------------------------------------|--------------------------------------|--------------------------------------|--------------------------------------|------------9------------9------------|--12-12-12-----12-12-12-----12-12-12--|
--------------------------------------|--------------------------------------|--------------------------------------|--------------------------------------|--12------------12------------9h10h9--|------10-10-10------10-10-10----------|
------------------------------|------------------------------|------------------------------|------------------------------|------------------------------|--12t-0-0-0--0--0-0-0--0-0-0--|
-------------------------------------|-------------------------------------|-------------------------------------|-------------------------------------|--10------------14------------10--9--|------12-12-12------12-12-12---------|
--------------------------------------|--------------------------------------|--------------------------------------|--------------------------------------|------------9------------9------------|--12-12-12-----12-12-12-----12-12-12--|
--------------------------------------|--------------------------------------|--------------------------------------|--------------------------------------|--12------------12------------9h10h9--|------10-10-10------10-10-10----------|
------------------------------|------------------------------|------------------------------|------------------------------|------------------------------|--12t-0-0-0--0--0-0-0--0-0-0--|
----------------------------------|----------------------------------|----------------------------------|----------------------------------|--10---------10---------10h12h14--|------0-0-0------0-0-0------------|
-------------------------------|--------------------------------|-------------------------------|--------------------------------|-------------------------------|--------------------------------|-------------------------------|--------------------------------|--9---------9---------9h10h12--|--12---------12---------9h10h9--|-----0-0-0-----0-0-0-----------|------0-0-0------0-0-0----------|
---------------------------------|---------------------------------|---------------------------------|---------------------------------|-----------------------10h12h14--|--12--0-0-0--0--0-0-0------------|
--------------------------------|--------------------------------|--------------------------------|--9---------9-------------------|----------------------10h12h14--|-----0-0-0-----0-0-0------------|
--------------------------------|------------------------------|--------------------------------|------------------------------|--------------------------------|------------------------------|--------------------------------|------------------------------|--12---------12---------12--14--|--12---------12---------12----|------0-0-0------0-0-0----------|------0-0-0------0-0-0--------|
-----------------------------|-----------------------------|-----------------------------|-----------------------------|-----------------------------|-----------------------------|-------------7---------7-----|-------------7---------7-----|-----------------------------|--10-------------------------|--7-7-7-7-7-----7-7-7-----7--|------7-7-7-----7-7-7-----7--|
--------------------------------|--------------------------------|--------------------------------|--------------------------------|--10---------10---------9h10h9--|------0-0-0------0-0-0----------|
--------------------------------|--------------------------------|--------------------------------|--------------------------------|--10---------10---------9h10h9--|------0-0-0------0-0-0----------|
----------------------------------|----------------------------------|----------------------------------|----------------------------------|--12---------12---------12h15h14--|------0-0-0------0-0-0------------|
----------------------------------|----------------------------------|----------------------------------|------------------------------12--|--9---------9h10h12--9h10h12------|-----0-0-0------------------------|
--------------------------------|--------------------------------|--------------------------------|--------------------------------|--10---------10---------9h10h9--|------0-0-0------0-0-0----------|
--------------------------------|-------------------------------|--------------------------------|-------------------------------|--------------------------------|-------------------------------|--------------------------------|-------------------------------|--10---------10---------9h10h9--|--12---------12---------12-----|------0-0-0------0-0-0----------|------0-0-0------0-0-0------0--|
-----------------------------|--------------------------------|-----------------------------|--------------------------------|-----------------------------|--------------------------------|-----------------------------|--------------------------------|--9---------10---------9-----|--10---------10---------9h10h9--|-----0-0-0------0-0-0-----0--|------0-0-0------0-0-0----------|
-------------------------------|-----------------------------|-------------------------------|-----------------------------|-------------------------------|-----------------------------|-------------------------------|-----------------------------|--12---------12---------12-----|--9---------10---------9-----|------0-0-0------0-0-0------0--|-----0-0-0------0-0-0-----0--|
--------------------------|---------------------------|--------------------------|---------------------------|--------------------------|---------------------------|--------------------------|---------------------4h-5--|--9--9--9--10----9--10----|--7--------10--------------|--------------------------|-----0--0------0--0--------|
--------------------------|---------------------------|--------------------------|---------------------------|--------------------------|---------------------------|--------------------5h-7--|--7---------7--------7-----|--5--------5--------------|-----5-5-5-----5--5-----5--|--3--3--3--3--3--3--------|---------------------------|
---------------------------|-------------------------------|---------------------------|-------------------------------|---------------------------|-------------------------------|--4---------5---------4----|-------------------------------|-----5-5-5-----5-5-5-------|------------------2------------|---------------------------|--0-0-0-0-0-0-0-0-0----0-0-0-0-|
----------------------------|-----------------------|----------------------------|-----------------------|----------------------------|-----------------------|----------------------------|-----------------------|----------2------------2----|----------3------------|--0-0-0-0-0----0-0-0-0-0----|--0-0-0-0-1------------|
-----------------------|-------------------------------|-----------------------|-------------------------------|-----------------------|-------------------------------|-----------------------|-------------------------------|------3--3--0h-2h-0----|------------------2------------|------1--1-------------|--0-0-0-0-0-0-0-0-0----0-0-0-0-|
----------------------------|-----------------------|----------------------------|-----------------------|----------------------------|-----------------------|----------------------------|-----------------------|----------2------------2----|----------3------------|--0-0-0-0-0----0-0-0-0-0----|--0-0-0-0-1------------|
-----------------------|-------------------------------|-----------------------|-------------------------------|-----------------------|-------------------------------|-----------------------|------------------5------------|------3--3--0h-2h-0----|------------------7------------|------1--1-------------|--0-0-0-0-0-0-0-0------0-0-0-0-|
----------------------------|-----------------------|----------------------------|-----------------------|----------------------------|-----------------------|----------5------------5----|----------2------------|----------7------------7----|----------3------------|--0-0-0-0------0-0-0-0------|--0-0-0-0--------------|
-----------------------|-------------------------------|-----------------------|-------------------------------|-----------------------|-------------------------------|------4--4--5h-7--3~---|------------------5------------|------5--5-------------|------------------7------------|-----------------------|--0-0-0-0-0-0-0-0------0-0-0-0-|
----------------------------|-----------------------|----------------------------|-----------------------|----------------------------|-----------------------|----------5------------5----|----------2------------|----------7------------7----|----------3------------|--0-0-0-0------0-0-0-0------|--0-0-0-0--------------|
-----------------------|-------------------------------|-----------------------|-------------------------------|-----------------------|-------------------------------|------4--4--5/-7--7----|-------------------------------|------5--5--7/-9--9----|------------------2------------|-----------------------|--0-0-0-0-0-0-0-0-0----0-0-0-0-|
----------------------------|-----------------------|----------------------------|-----------------------|----------------------------|-----------------------|----------------------------|-----------------------|----------2------------2----|----------3------------|--0-0-0-0-0----0-0-0-0-0----|--0-0-0-0-1------------|
-----------------------|-------------------------------|-----------------------|-------------------------------|-----------------------|-------------------------------|-----------------------|-------------------------------|------3--3--0h-2h-0----|------------------2------------|------1--1-------------|--0-0-0-0-0-0-0-0-0----0-0-0-0-|
----------------------------|-----------------------|----------------------------|-----------------------|----------------------------|-----------------------|----------------------------|-----------------------|----------2------------2----|----------3------------|--0-0-0-0-0----0-0-0-0-0----|--0-0-0-0-1------------|
-----------------------|-------------------------------|-----------------------|-------------------------------|-----------------------|-------------------------------|-----------------------|------------------5------------|------3--3--0h-2h-0----|------------------7------------|------1--1-------------|--0-0-0-0-0-0-0-0------0-0-0-0-|
----------------------------|-----------------------|----------------------------|-----------------------|----------------------------|-----------------------|----------5------------5----|----------2------------|----------7------------7----|----------3------------|--0-0-0-0------0-0-0-0------|--0-0-0-0--------------|
-----------------------|-------------------------------|-----------------------|-------------------------------|-----------------------|-------------------------------|------4--4--5h-7--3~---|------------------5------------|------5--5-------------|------------------7------------|-----------------------|--0-0-0-0-0-0-0-0------0-0-0-0-|
----------------------------|-----------------------|----------------------------|-----------------------|----------------------------|-----------------------|----------5------------5----|----------2------------|----------7------------7----|----------3------------|--0-0-0-0------0-0-0-0------|--0-0-0-0--------------|
-----------------------|-------------------------------------|-----------------------|-------------------------------------|-----------------------|-------------------------------------|------4--4--5/-7--7----|-------------------------------------|------5--5--7/-9--9----|--10------------14------------10--9--|-----------------------|------12-12-12------12-12-12---------|
--------------------------------------|--------------------------------------|--------------------------------------|--------------------------------------|------------9------------9------------|--12-12-12-----12-12-12-----12-12-12--|
--------------------------------------|--------------------------------------|--------------------------------------|--------------------------------------|--12------------12------------9h10h9--|------10-10-10------10-10-10----------|
------------------------------|------------------------------|------------------------------|------------------------------|------------------------------|--12t-0-0-0--0--0-0-0--0-0-0--|
-------------------------------------|-------------------------------------|-------------------------------------|-------------------------------------|--10------------14------------10--9--|------12-12-12------12-12-12---------|
--------------------------------------|--------------------------------------|--------------------------------------|--------------------------------------|------------9------------9------------|--12-12-12-----12-12-12-----12-12-12--|
--------------------------------------|--------------------------------------|--------------------------------------|--------------------------------------|--12------------12------------9h10h9--|------10-10-10------10-10-10----------|
------------------------------|------------------------------|------------------------------|------------------------------|------------------------------|--12t-0-0-0--0--0-0-0--0-0-0--|
----------------------------------|----------------------------------|----------------------------------|----------------------------------|--10---------10---------10h12h14--|------0-0-0------0-0-0------------|
Tap to rate this tab
 
# A B C D E F G H I J K L M N O P Q R S T U V W X Y Z