Quo Vadis - Silence Calls The Storm tab

Quo Vadis - Silence Calls The Storm
Partition: Patrick Chamberland
Email: sk8_pat13@hotmail.com

E,A,D,G,B,E

Both Guitar: |--------------------------------------------------------| |--------------------------------------------------------|4 |--------------------------------------------------------|/ |--------------------------------------------------------|4 |--2---------------2----------2--------------------------| |--0-0-0-0-0-0-0-0-0--0-0-0-0-0--0-0-0-0-0-0-0-0-0-0-0-0-|
|--------------------------------------------------------||--------------------------------------------------------||--------------------------------------------------------||--------------------------------------------------------||--2---------------2----------2--------------------------||--0-0-0-0-0-0-0-0-0--0-0-0-0-0--0-0-0-0-0-0-0-0-0-0-0-0-|
|-----------------------------------------------------------||-----------------------------------------------------------||-----------------------------------------------------------||-----------------------------------------------------------||--10---------------10----------10--------------------------||--8--8-8-8-8-8-8-8-8---8-8-8-8-8---8-8-8-8-8-8-8-8-8-8-8-8-|
|--------------------------------------------------------||--------------------------------------------------------||--------------------------------------------------------||--------------------------------------------------------||--7---------------7----------7--------------------------||--5-5-5-5-5-5-5-5-5--5-5-5-5-5--5-5-5-5-5-5-5-5-5-5-5-5-|
|--------------------------------------------------------||--------------------------------------------------------||--------------------------------------------------------||--------------------------------------------------------||--2---------------2----------2--------------------------||--0-0-0-0-0-0-0-0-0--0-0-0-0-0--0-0-0-0-0-0-0-0-0-0-0-0-|
|--------------------------------------------------------||--------------------------------------------------------||--------------------------------------------------------||--------------------------------------------------------||--2---------------2----------2--------------------------||--0-0-0-0-0-0-0-0-0--0-0-0-0-0--0-0-0-0-0-0-0-0-0-0-0-0-|
|-----------------------------------------------------------||-----------------------------------------------------------||-----------------------------------------------------------||-----------------------------------------------------------||--10---------------10----------10--------------------------||--8--8-8-8-8-8-8-8-8---8-8-8-8-8---8-8-8-8-8-8-8-8-8-8-8-8-|
|--------------------------------------------------------||--------------------------------------------------------||--------------------------------------------------------||--------------------------------------------------------||--7---------------7----------7--------------------------||--5-5-5-5-5-5-5-5-5--5-5-5-5-5--5-5-5-5-5-5-5-5-5-5-5-5-|
|--------------------------------------------------------||--------------------------------------------------------||--------------------------------------------------------||--------------------------------------------------------||--2---------------2----------2--------------------------||--0-0-0-0-0-0-0-0-0--0-0-0-0-0--0-0-0-0-0-0-0-0-0-0-0-0-|
|--------------------------------------------------------||--------------------------------------------------------||--------------------------------------------------------||--------------------------------------------------------||--2---------------2----------2--------------------------||--0-0-0-0-0-0-0-0-0--0-0-0-0-0--0-0-0-0-0-0-0-0-0-0-0-0-|
|-----------------------------------------------------------||-----------------------------------------------------------||-----------------------------------------------------------||-----------------------------------------------------------||--10---------------10----------10--------------------------||--8--8-8-8-8-8-8-8-8---8-8-8-8-8---8-8-8-8-8-8-8-8-8-8-8-8-|
|--------------------------------------------------------||--------------------------------------------------------||--------------------------------------------------------||--------------------------------------------------------||--7---------------7----------7--------------------------||--5-5-5-5-5-5-5-5-5--5-5-5-5-5--5-5-5-5-5-5-5-5-5-5-5-5-|
|--------------------------------------------------------||--------------------------------------------------------||--------------------------------------------------------||--------------------------------------------------------||--2---------------2----------2--------------------------||--0-0-0-0-0-0-0-0-0--0-0-0-0-0--0-0-0-0-0-0-0-0-0-0-0-0-|
|--------------------------------------------------------||--------------------------------------------------------||--------------------------------------------------------||--------------------------------------------------------||--2---------------2----------2--------------------------||--0-0-0-0-0-0-0-0-0--0-0-0-0-0--0-0-0-0-0-0-0-0-0-0-0-0-|
|-----------------------------------------------------------||-----------------------------------------------------------||-----------------------------------------------------------||-----------------------------------------------------------||--10---------------10----------10--------------------------||--8--8-8-8-8-8-8-8-8---8-8-8-8-8---8-8-8-8-8-8-8-8-8-8-8-8-|
Bart: slide up & down |--------------------------------------------------------||--------------------------------------------------------||--------------------------------------------------------||--------------------------------------------------------||--7---------------7----------7--------------------------||--5-5-5-5-5-5-5-5-5--5-5-5-5-5--0/-------12/-------0----|
| |
| William:|--------------------------------------------------------||--------------------------------------------------------||--------------------------------------------------------||--------------------------------------------------------||--7---------------7----------7--------------------------||--5-5-5-5-5-5-5-5-5--5-5-5-5-5--5-5-5-5-5-5-5-5-5-5-5-5-|
Bart:|----------------------------------------------------||----------------------------------------------------||------------------12--------------------------------||----------------------------------------------------||----------14------------------(12)14~---------------||--12----------------------12------------------------|
| |
| William:|--------------------------------------------------------||--------------------------------------------------------||--------------------------------------------------------||--------------------------------------------------------||--2---------------2----------2--------------------------||--0-0-0-0-0-0-0-0-0--0-0-0-0-0--0-0-0-0-0-0-0-0-0-0-0-0-|
Bart:|----------------------------------------------------||----------------------------------------------------||------------------12--------------------------------||----------------------------------------------------||----------14----------------------------------------||--12----------------------12------12~---------------|
| |
| William:|--------------------------------------------------------||--------------------------------------------------------||--------------------------------------------------------||--------------------------------------------------------||--2---------------2----------2--------------------------||--0-0-0-0-0-0-0-0-0--0-0-0-0-0--0-0-0-0-0-0-0-0-0-0-0-0-|
Bart:|----------------------------------------------------||----------------------------------------------------||------------------12--------------------------------||----------------------------------------------------||----------14------------------(12)14~---------------||--12----------------------12------------------------|
| |
| William:|-----------------------------------------------------------||-----------------------------------------------------------||-----------------------------------------------------------||-----------------------------------------------------------||--10---------------10----------10--------------------------||--8--8-8-8-8-8-8-8-8---8-8-8-8-8---8-8-8-8-8-8-8-8-8-8-8-8-|
Bart:|----------------------------------------------------||----------------------------------------------------||----------------------(11)12~-----------11~---------||------------------14--------------------------------||----------14----------------------------------------||--12------------------------------------------------|
| |
| William:|--------------------------------------------------------||--------------------------------------------------------||--------------------------------------------------------||--------------------------------------------------------||--7---------------7----------7--------------------------||--5-5-5-5-5-5-5-5-5--5-5-5-5-5--5-5-5-5-5-5-5-5-5-5-5-5-|
Bart:|----------------------------------------------------||----------------------------------------------------||------------------12--------------------------------||----------------------------------------------------||----------14------------------(12)14~---------------||--12----------------------12------------------------|
| |
| William:|--------------------------------------------------------||--------------------------------------------------------||--------------------------------------------------------||--------------------------------------------------------||--2---------------2----------2--------------------------||--0-0-0-0-0-0-0-0-0--0-0-0-0-0--0-0-0-0-0-0-0-0-0-0-0-0-|
Bart:|----------------------------------------------------||----------------------------------------------------||------------------12--------------------------------||----------------------------------------------------||----------14----------------------------------------||--12----------------------12------12~---------------|
| |
| William:|--------------------------------------------------------||--------------------------------------------------------||--------------------------------------------------------||--------------------------------------------------------||--2---------------2----------2--------------------------||--0-0-0-0-0-0-0-0-0--0-0-0-0-0--0-0-0-0-0-0-0-0-0-0-0-0-|
Bart:|----------------------------------------------------||----------------------------------------------------||------------------12--------------------------------||----------------------------------------------------||----------14------------------(12)14~---------------||--12----------------------12------------------------|
| |
| William:|-----------------------------------------------------------||-----------------------------------------------------------||-----------------------------------------------------------||-----------------------------------------------------------||--10---------------10----------10--------------------------||--8--8-8-8-8-8-8-8-8---8-8-8-8-8---8-8-8-8-8-8-8-8-8-8-8-8-|
Bart:|----------------------------------------------------||----------------------------------------------------||----------------------(11)12~-----------14~---------||------------------14--------------------------------||----------14----------------------------------------||--12------------------------------------------------|
| |
| William:|--------------------------------------------------------||--------------------------------------------------------||--------------------------------------------------------||--------------------------------------------------------||--7---------------7----------7--------------------------||--5-5-5-5-5-5-5-5-5--5-5-5-5-5--5-5-5-5-5-5-5-5-5-5-5-5-|
Bart: |---------------------------------------|------------------------------||----------------------12--10h12h10-----|------------------------------||----------12-----------------------12--|--11---------9----------11~---||---------------------------------------|------------------------------||------14----------14-------------------|---------10---------12--------||--12----------12-----------------------|------8---------10------------|
| |
| William:|---------------------------------------|------------------------------||---------------------------------------|------------------------------||---------------------------------------|------------------------------||--2------------------------------------|------------------------------||--2------------------------------------|------------------------------||--0------------------------------------|------------------------------|
Bart: |--------------------------------------|-----------------------------------||----------------------12--10h12h10----|-13--------------------------------||----------12-----------------------12-|------------9--11-12-11------------||--------------------------------------|------------------------14-13------||------14----------14------------------|--------10---------------------14--||--12----------12----------------------|-----8-----------------------------|
| |
| William:|--------------------------------------|-----------------------------------||--------------------------------------|-----------------------------------||--------------------------------------|-----------------------------------||--2-----------------------------------|-----------------------------------||--2-----------------------------------|-----------------------------------||--0-----------------------------------|-----------------------------------|
Bart: |---------------------------------------|------------------------------||----------------------12--10h12h10-----|------------------------------||----------12-----------------------12--|--11---------9----------11~---||---------------------------------------|------------------------------||------14----------14-------------------|---------10---------12--------||--12----------12-----------------------|------8---------10------------|
| |
| William:|---------------------------------------|------------------------------||---------------------------------------|------------------------------||---------------------------------------|------------------------------||--2------------------------------------|------------------------------||--2------------------------------------|------------------------------||--0------------------------------------|------------------------------|
Bart: |--------------------------------------|-----------------------------------||----------------------12--10h12h10----|-13--------------------------------||----------12-----------------------12-|------------9--11-12-11------------||--------------------------------------|------------------------14-13------||------14----------14------------------|--------10---------------------14--||--12----------12----------------------|-----8-----------------------------|
| |
| William:|--------------------------------------|-----------------------------------||--------------------------------------|-----------------------------------||--------------------------------------|-----------------------------------||--2-----------------------------------|-----------------------------------||--2-----------------------------------|--------------------------------0/-||--0-----------------------------------|-----------------------------------|
Bart: |--------------------------------------------||--------------------------------------------||--9h11h12-9h12h11-9h11-9h11h12-9h11h12-11~--||--------------------------------------------||--------------------------------------------||--------------------------------------------|
| |
| William:|--------------------------------------------||--------------------------------------------||--------------------------------------------||--------------------------------------------||--2-------------------------------------2/--||--------------------------------------------|
Bart: |--------------------------------------------||--------------------------------------------||--9h11h12-9h12h11-9h11-9h11h12-9h11h12-11~--||--------------------------------------------||--------------------------------------------||--------------------------------------------|
| |
| William:|--------------------------------------------||--------------------------------------------||--------------------------------------------||--------------------------------------------||--3-------------------------------------3/--||--------------------------------------------|
Bart: |--------------------------------------------||--------------------------------------------||--9h11h12-9h12h11-9h11-9h11h12-9h11h12-11~--||--------------------------------------------||--------------------------------------------||--------------------------------------------|
| |
| William:|--------------------------------------------||--------------------------------------------||--------------------------------------------||--------------------------------------------||--5-----------------------------------------||--------------------------------------------|
Bart: |--------------------------------------------||--------------------------------------------||--9h11h12-9h12h11-9h11-9h11h12-9h11h12-11~--||--------------------------------------------||--------------------------------------------||--------------------------------------------|
| |
| William:|--------------------------------------------||--------------------------------------------||--------------------------------------------||--------------------------------------------||--0-------------------------------------0/--||--------------------------------------------|
Bart: |--------------------------------------------||--------------------------------------------||--9h11h12-9h12h11-9h11-9h11h12-9h11h12-11~--||--------------------------------------------||--------------------------------------------||--------------------------------------------|
| |
| William:|--------------------------------------------||--------------------------------------------||--------------------------------------------||--------------------------------------------||--2-------------------------------------2/--||--------------------------------------------|
Bart: |--------------------------------------------||--------------------------------------------||--9h11h12-9h12h11-9h11-9h11h12-9h11h12-11~--||--------------------------------------------||--------------------------------------------||--------------------------------------------|
| |
| William:|--------------------------------------------||--------------------------------------------||--------------------------------------------||--------------------------------------------||--3-------------------------------------3/--||--------------------------------------------|
Bart: |--------------------------------------------||--------------------------------------------||--9h11h12-9h12h11-9h11-9h11h12-9h11h12-11~--||--------------------------------------------||--------------------------------------------||--------------------------------------------|
| |
| William:|--------------------------------------------||--------------------------------------------||--------------------------------------------||--------------------------------------------||--5-------------------------------------5/--||--------------------------------------------|
Bart: |--------------------------------------------||--------------------------------------------||--9h11h12-9h12h11-9h11-9h11h12-9h11h12-11~--||--------------------------------------------||--------------------------------------------||--------------------------------------------|
| |
| William: slide down|--------------------------------------------||--------------------------------------------||--------------------------------------------||--------------------------------------------||--7~------------------------------7/--------||--------------------------------------------|
Bart:|-------------------------------|-------------------------------||-------------------------------|-------------------------------||-------------------------------|-------------------------------||--2--2------2--2.--------------|--2--2------2--2.--------------||--2--2--x-x-2--2.--------------|--2--2--x-x-2--2.--------------||--0--0--x-x-0--0.--------------|--0--0--x-x-0--0.--------------|
| |
| William:|-------------------------------|-------------------------------||-------------------------------|-------------------------------||-------------------------------|-------------------------------||--2--2------2--2---------------|--2--2------2--2---------------||--2--2--x-x-2--2---------------|--2--2--x-x-2--2---------------||--0--0--x-x-0--0-0-0-0-3-0-2-0-|--0--0--x-x-0--0-0-0-0-3-0-2-0-|
Bart:|-------------------------------|-------------------------------||-------------------------------|-------------------------------||-------------------------------|-------------------------------||--2--2------2--2.--------------|--2--2------2--2.--------------||--2--2--x-x-2--2.--------------|--2--2--x-x-2--2.--------------||--0--0--x-x-0--0.--------------|--0--0--x-x-0--0.--------------|
| |
| William:|-------------------------------|-------------------------------||-------------------------------|-------------------------------||-------------------------------|-------------------------------||--2--2------2--2---------------|--2--2------2--2---------------||--2--2--x-x-2--2---------------|--2--2--x-x-2--2---------------||--0--0--x-x-0--0-0-0-0-3-0-2-0-|--0--0--x-x-0--0---------------|
Both Guitar: |--------------------------------------------------||--------------------------------------------------||--------------------------------------------------||--------------------------------------------------||--------------14----------------------14----15----||--12-14-15-12----12-15-14-12-14-15-12----12----12-|
|-----------------------------------------------------------||-----------------------------------------------------------||-----------------------------------------------------------||-----------------------------14----------17----16----------||--15h14h12-------------------------------------------------||-----------15h14h12-12-12-12----12-12-12----12----12-12-12-|
|--------------------------------------------------||--------------------------------------------------||--------------------------------------------------||--------------------------------------------------||--------------14----------------------14----15----||--12-14-15-12----12-15-14-12-14-15-12----12----12-|
|-----------------------------------------------------------||-----------------------------------------------------------||-----------------------------------------------------------||-----------------------------14----------17----16----------||--15h14h12-------------------------------------------------||-----------15h14h12-12-12-12----12-12-12----12----12-12-12-|
|-------------------------| |-------------------------|2 |-------------------------|/ |-14----------14----16/17-|4 |-------------------------| |----12-12-12----12-------|
|--------------------------------------------------| |--------------------------------------------------|4 |--------------------------------------------------|/ |--------------------------------------------------|4 |--------------14----------------------14----15----| |--12-14-15-12----12-15-14-12-14-15-12----12----12-|
|-----------------------------------------------------------||-----------------------------------------------------------||-----------------------------------------------------------||-----------------------------14----------17----16----------||--15h14h12-------------------------------------------------||-----------15h14h12-12-12-12----12-12-12----12----12-12-12-|
|--------------------------------------------------||--------------------------------------------------||--------------------------------------------------||--------------------------------------------------||--------------14----------------------14----15----||--12-14-15-12----12-15-14-12-14-15-12----12----12-|
|-----------------------------------------------------------||-----------------------------------------------------------||-----------------------------------------------------------||-----------------------------14----------17----16----------||--15h14h12-------------------------------------------------||-----------15h14h12-12-12-12----12-12-12----12----12-12-12-|
|-------------------------| |-------------------------|2 |-------------------------|/ |-14----------14----16/17-|4 |-------------------------| |----12-12-12----12-------|
|--------------------------------------------------------| |--------------------------------------------------------|4 |--------------------------------------------------------|/ |--------------------------------------------------------|4 |--2---------------2----------2--------------------------| |--0-0-0-0-0-0-0-0-0--0-0-0-0-0--0-0-0-0-0-0-0-0-0-0-0-0-|
|--------------------------------------------------------||--------------------------------------------------------||--------------------------------------------------------||--------------------------------------------------------||--2---------------2----------2--------------------------||--0-0-0-0-0-0-0-0-0--0-0-0-0-0--0-0-0-0-0-0-0-0-0-0-0-0-|
|-----------------------------------------------------------||-----------------------------------------------------------||-----------------------------------------------------------||-----------------------------------------------------------||--10---------------10----------10--------------------------||--8--8-8-8-8-8-8-8-8---8-8-8-8-8---8-8-8-8-8-8-8-8-8-8-8-8-|
|--------------------------------------------------------||--------------------------------------------------------||--------------------------------------------------------||--------------------------------------------------------||--7---------------7----------7--------------------------||--5-5-5-5-5-5-5-5-5--5-5-5-5-5--5-5-5-5-5-5-5-5-5-5-5-5-|
|--------------------------------------------------------||--------------------------------------------------------||--------------------------------------------------------||--------------------------------------------------------||--2---------------2----------2--------------------------||--0-0-0-0-0-0-0-0-0--0-0-0-0-0--0-0-0-0-0-0-0-0-0-0-0-0-|
|--------------------------------------------------------||--------------------------------------------------------||--------------------------------------------------------||--------------------------------------------------------||--2---------------2----------2--------------------------||--0-0-0-0-0-0-0-0-0--0-0-0-0-0--0-0-0-0-0-0-0-0-0-0-0-0-|
|-----------------------------------------------------------||-----------------------------------------------------------||-----------------------------------------------------------||-----------------------------------------------------------||--10---------------10----------10--------------------------||--8--8-8-8-8-8-8-8-8---8-8-8-8-8---8-8-8-8-8-8-8-8-8-8-8-8-|
|--------------------------------------------------------||--------------------------------------------------------||--------------------------------------------------------||--------------------------------------------------------||--7---------------7----------7--------------------------||--5-5-5-5-5-5-5-5-5--5-5-5-5-5--5-5-5-5-5-5-5-5-5-5-5-5-|
|---------------------------|--------------------------||---------------------------|--------------------------||---------------------------|--------------------------||--7h9----------------------|--7h9---------------------||-------x-7~---2-2-2-2-2----|-------x-7~---2-2--2-2----||--------------0-0-0-0-0----|--------------0-0--0-0----|
Bart: |-----------------------|----------------------||-----------------------|----------------------||-----------------------|----------------------||-----------7h9--x-9~---|----------------------||--7--------------------|--7--------10----9----||--8--------------------|--5--------8-----7----|
| |
| William:|-----------------------|----------------------||-----------------------|----------------------||-----------------------|----------------------||-----------7h9--x-9~---|----------------------||--7--------------------|--7--------10----9----||--5--------------------|--5--------8-----7----|
Both Guitar: |---------------------------|--------------------------||---------------------------|--------------------------||---------------------------|--------------------------||--7h9----------------------|--7h9---------------------||-------x-7~---2-2-2-2-2----|-------x-7~---2-2--2-2----||--------------0-0-0-0-0----|--------------0-0--0-0----|
Bart: |-----------------------|----------------------||-----------------------|----------------------||-----------------------|----------------------||-----------7h9--x-9~---|----------------------||--7--------------------|--7--------10----9----||--8--------------------|--5--------8-----7----|
| |
| William:|-----------------------|----------------------||-----------------------|----------------------||-----------------------|----------------------||-----------7h9--x-9~---|----------------------||--7--------------------|--7--------10----9----||--5--------------------|--5--------8-----7----|
Both Guitar: |----------------------------|----------------------------||----------------------------|----------------------------||----------------------------|----------------------------||----------------------------|----------------------------||--2-2.-2-2.-2-2.-2-2.-2.-2.-|--2-2.-2-2.-2-2.-2-2.-2.-2.-||--0-0.-0-0.-0-0.-0-0.-0.-0.-|--0-0.-0-0.-0-0.-0-0.-0.-0.-|
|----------------------------|----------------------------||----------------------------|----------------------------||----------------------------|----------------------------||----------------------------|----------------------------||--2-2.-2-2.-2-2.-2-2.-2.-2.-|--2-2.-2-2.-2-2.------------||--0-0.-0-0.-0-0.-0-0.-0.-0.-|--0-0.-0-0.-0-0.------------|
|--------------------------------------------------||--------------------------------------------------||--------------------------------------------------||--------------------------------------------------||--------------14----------------------14----15----||--12-14-15-12----12-15-14-12-14-15-12----12----12-|
|-----------------------------------------------------------||-----------------------------------------------------------||-----------------------------------------------------------||-----------------------------14----------17----16----------||--15h14h12-------------------------------------------------||-----------15h14h12-12-12-12----12-12-12----12----12-12-12-|
|--------------------------------------------------||--------------------------------------------------||--------------------------------------------------||--------------------------------------------------||--------------14----------------------14----15----||--12-14-15-12----12-15-14-12-14-15-12----12----12-|
|-----------------------------------------------------------||-----------------------------------------------------------||-----------------------------------------------------------||-----------------------------14----------17----16----------||--15h14h12-------------------------------------------------||-----------15h14h12-12-12-12----12-12-12----12----12-12-12-|
|-------------------------| |-------------------------|2 |-------------------------|/ |-14----------14----16/17-|4 |-------------------------| |----12-12-12----12-------|
|--------------------------------------------------| |--------------------------------------------------|4 |--------------------------------------------------|/ |--------------------------------------------------|4 |--------------14----------------------14----15----| |--12-14-15-12----12-15-14-12-14-15-12----12----12-|
|-----------------------------------------------------------||-----------------------------------------------------------||-----------------------------------------------------------||-----------------------------14----------17----16----------||--15h14h12-------------------------------------------------||-----------15h14h12-12-12-12----12-12-12----12----12-12-12-|
|--------------------------------------------------||--------------------------------------------------||--------------------------------------------------||--------------------------------------------------||--------------14----------------------14----15----||--12-14-15-12----12-15-14-12-14-15-12----12----12-|
|-----------------------------------------------------------||-----------------------------------------------------------||-----------------------------------------------------------||-----------------------------14----------17----16----------||--15h14h12-------------------------------------------------||-----------15h14h12-12-12-12----12-12-12----12----12-12-12-|
|-------------------------| |-------------------------|2 |-------------------------|/ |-14----------14----16/17-|4 |-------------------------| |----12-12-12----12-------|
|--------------------------------------------------------| |--------------------------------------------------------|4 |--------------------------------------------------------|/ |--------------------------------------------------------|4 |--2---------------2----------2--------------------------| |--0-0-0-0-0-0-0-0-0--0-0-0-0-0--0-0-0-0-0-0-0-0-0-0-0-0-|
|--------------------------------------------------------||--------------------------------------------------------||--------------------------------------------------------||--------------------------------------------------------||--2---------------2----------2--------------------------||--0-0-0-0-0-0-0-0-0--0-0-0-0-0--0-0-0-0-0-0-0-0-0-0-0-0-|
|-----------------------------------------------------------||-----------------------------------------------------------||-----------------------------------------------------------||-----------------------------------------------------------||--10---------------10----------10--------------------------||--8--8-8-8-8-8-8-8-8---8-8-8-8-8---8-8-8-8-8-8-8-8-8-8-8-8-|
|--------------------------------------------------------||--------------------------------------------------------||--------------------------------------------------------||--------------------------------------------------------||--7---------------7----------7--------------------------||--5-5-5-5-5-5-5-5-5--5-5-5-5-5--5-5-5-5-5-5-5-5-5-5-5-5-|
|--------------------------------------------------------||--------------------------------------------------------||--------------------------------------------------------||--------------------------------------------------------||--2---------------2----------2--------------------------||--0-0-0-0-0-0-0-0-0--0-0-0-0-0--0-0-0-0-0-0-0-0-0-0-0-0-|
|--------------------------------------------------------||--------------------------------------------------------||--------------------------------------------------------||--------------------------------------------------------||--2---------------2----------2--------------------------||--0-0-0-0-0-0-0-0-0--0-0-0-0-0--0-0-0-0-0-0-0-0-0-0-0-0-|
|-----------------------------------------------------------||-----------------------------------------------------------||-----------------------------------------------------------||-----------------------------------------------------------||--10---------------10----------10--------------------------||--8--8-8-8-8-8-8-8-8---8-8-8-8-8---8-8-8-8-8-8-8-8-8-8-8-8-|
|--------------------------------------------------------||--------------------------------------------------------||--------------------------------------------------------||--------------------------------------------------------||--7---------------7----------7--------------------------||--5-5-5-5-5-5-5-5-5--5-5-5-5-5--5-5-5-5-5-5-5-5-5-5-5-5-|
|---------------------------|--------------------------||---------------------------|--------------------------||---------------------------|--------------------------||--7h9----------------------|--7h9---------------------||-------x-7~---2-2-2-2-2----|-------x-7~---2-2--2-2----||--------------0-0-0-0-0----|--------------0-0--0-0----|
Bart: |-----------------------|----------------------||-----------------------|----------------------||-----------------------|----------------------||-----------7h9--x-9~---|----------------------||--7--------------------|--7--------10----9----||--8--------------------|--5--------8-----7----|
| |
| William:|-----------------------|----------------------||-----------------------|----------------------||-----------------------|----------------------||-----------7h9--x-9~---|----------------------||--7--------------------|--7--------10----9----||--5--------------------|--5--------8-----7----|
Both Guitar: |---------------------------|--------------------------||---------------------------|--------------------------||---------------------------|--------------------------||--7h9----------------------|--7h9---------------------||-------x-7~---2-2-2-2-2----|-------x-7~---2-2--2-2----||--------------0-0-0-0-0----|--------------0-0--0-0----|
Bart: |-----------------------|----------------------||-----------------------|----------------------||-----------------------|----------------------||-----------7h9--x-9~---|----------------------||--7--------------------|--7--------10----9----||--8--------------------|--5--------8-----7----|
| |
| William:|-----------------------|----------------------||-----------------------|----------------------||-----------------------|----------------------||-----------7h9--x-9~---|----------------------||--7--------------------|--7--------10----9----||--5--------------------|--5--------8-----7----|
Both Guitar: |----------------------------|----------------------------||----------------------------|----------------------------||----------------------------|----------------------------||----------------------------|----------------------------||--2-2.-2-2.-2-2.-2-2.-2.-2.-|--2-2.-2-2.-2-2.-2-2.-2.-2.-||--0-0.-0-0.-0-0.-0-0.-0.-0.-|--0-0.-0-0.-0-0.-0-0.-0.-0.-|
|----------------------------|----------------------------||----------------------------|----------------------------||----------------------------|----------------------------||----------------------------|----------------------------||--2-2.-2-2.-2-2.-2-2.-2.-2.-|--2-2.-2-2.-2-2.------------||--0-0.-0-0.-0-0.-0-0.-0.-0.-|--0-0.-0-0.-0-0.------------|
Solo Coming Soon!!!!!!!!!!!
Bart:|----|----|----*(&%*^%$&^%#$^#$^%&^%*^|----|----|----
| |
William: (clean)|----------------------------------|-----------------------------||----------------------------------|-----------------------------||----------12----------------------|---------9---------11-----9--||----------------------14----------|-----------------------------||------14----------14----------14--|-----10--------10------------||--12----------12----------12------|--8---------8----------8-----|
|----------------------------------|-----------------------------||----------------------------------|-----------------------------||----------12----------------------|---------9---------9--11/12--||----------------------14----------|-----------------------------||------14----------14----------14--|-----10--------10------------||--12----------12----------12------|--8---------8----------------|
|----------------------------------|-----------------------------||----------------------------------|-----------------------------||----------12----------------------|---------9---------11-----9--||----------------------14----------|-----------------------------||------14----------14----------14--|-----10--------10------------||--12----------12----------12------|--8---------8----------8-----|
|----------------------------------|-----------------------------||----------------------------------|-----------------------------||----------12----------------------|---------9---------9--11/12--||----------------------14----------|-----------------------------||------14----------14----------14--|-----10--------10------------||--12----------12----------12------|--8---------8----------------|
|---------------------------------------|------------------------------||----------------------12--10h12h10-----|------------------------------||----------12-----------------------12--|--11---------9----------11~---||---------------------------------------|------------------------------||------14----------14-------------------|---------10---------12--------||--12----------12-----------------------|------8---------10------------|
|--------------------------------------|-----------------------------------||----------------------12--10h12h10----|-13--------------------------------||----------12-----------------------12-|------------9--11-12-11------------||--------------------------------------|------------------------14-13------||------14----------14------------------|--------10---------------------14--||--12----------12----------------------|-----8-----------------------------|
|---------------------------------------|------------------------------||----------------------12--10h12h10-----|------------------------------||----------12-----------------------12--|--11---------9----------11~---||---------------------------------------|------------------------------||------14----------14-------------------|---------10---------12--------||--12----------12-----------------------|------8---------10------------|
|--------------------------------------|-----------------------------------||----------------------12--10h12h10----|-13--------------------------------||----------12-----------------------12-|------------9--11-12-11------------||--------------------------------------|------------------------14-13------||------14----------14------------------|--------10---------------------14--||--12----------12----------------------|-----8-----------------------------|
William: (solo coming soon)|----|----|----*(&%*^%$&^%#$^#$^%&^%*^|----|----|----
| |
Bart:|---------------------|----------------------||---------------------|----------------------||---------------------|----------------------||--2------------------|--5-------7-----------||--2--------------x-x-|--5----x--7--------x--||--0--------------x-x-|--3----x--5--------x--|
|---------------------|----------------------||---------------------|----------------------||---------------------|----------------------||--2------------------|--5-------7-----------||--2--------------x-x-|--5----x--7--------x--||--0--------------x-x-|--3----x--5--------x--|
|---------------------------------------|------------------------------||----------------------12--10h12h10-----|------------------------------||----------12-----------------------12--|--11---------9----------11~---||---------------------------------------|------------------------------||------14----------14-------------------|---------10---------12--------||--12----------12-----------------------|------8---------10------------|
Bart: |--------------------------------------|-----------------------------------||----------------------12--10h12h10----|-13--------------------------------||----------12-----------------------12-|------------9--11-12-11------------||--------------------------------------|------------------------14-13------||------14----------14------------------|--------10---------------------14--||--12----------12----------------------|-----8-----------------------------|
| |
| William: (solo ending)|--------------------------------------|-----------------------------------||--------------------------------------|-----------------------------------||**&%%$%(#@%%#%&^%*^-------------------|-----------------------------------||--------------------------------------|-----------------------------------||--------------------------------------|--------------------------------0/-||--------------------------------------|-----------------------------------|
Bart: |--------------------------------------------||--------------------------------------------||--9h11h12-9h12h11-9h11-9h11h12-9h11h12-11~--||--------------------------------------------||--------------------------------------------||--------------------------------------------|
| |
| William:|--------------------------------------------||--------------------------------------------||--------------------------------------------||--------------------------------------------||--2-------------------------------------2/--||--------------------------------------------|
Bart: |--------------------------------------------||--------------------------------------------||--9h11h12-9h12h11-9h11-9h11h12-9h11h12-11~--||--------------------------------------------||--------------------------------------------||--------------------------------------------|
| |
| William:|--------------------------------------------||--------------------------------------------||--------------------------------------------||--------------------------------------------||--3-------------------------------------3/--||--------------------------------------------|
Bart: |--------------------------------------------||--------------------------------------------||--9h11h12-9h12h11-9h11-9h11h12-9h11h12-11~--||--------------------------------------------||--------------------------------------------||--------------------------------------------|
| |
| William:|--------------------------------------------||--------------------------------------------||--------------------------------------------||--------------------------------------------||--5-----------------------------------------||--------------------------------------------|
Bart: |--------------------------------------------||--------------------------------------------||--9h11h12-9h12h11-9h11-9h11h12-9h11h12-11~--||--------------------------------------------||--------------------------------------------||--------------------------------------------|
| |
| William:|--------------------------------------------||--------------------------------------------||--------------------------------------------||--------------------------------------------||--0-------------------------------------0/--||--------------------------------------------|
Bart: |--------------------------------------------||--------------------------------------------||--9h11h12-9h12h11-9h11-9h11h12-9h11h12-11~--||--------------------------------------------||--------------------------------------------||--------------------------------------------|
| |
| William:|--------------------------------------------||--------------------------------------------||--------------------------------------------||--------------------------------------------||--2-------------------------------------2/--||--------------------------------------------|
Bart: |--------------------------------------------||--------------------------------------------||--9h11h12-9h12h11-9h11-9h11h12-9h11h12-11~--||--------------------------------------------||--------------------------------------------||--------------------------------------------|
| |
| William:|--------------------------------------------||--------------------------------------------||--------------------------------------------||--------------------------------------------||--3-------------------------------------3/--||--------------------------------------------|
Bart: |--------------------------------------------||--------------------------------------------||--9h11h12-9h12h11-9h11-9h11h12-9h11h12-11~--||--------------------------------------------||--------------------------------------------||--------------------------------------------|
| |
| William:|--------------------------------------------||--------------------------------------------||--------------------------------------------||--------------------------------------------||--5-------------------------------------5/--||--------------------------------------------|
Bart: |--------------------------------------------||--------------------------------------------||--9h11h12-9h12h11-9h11-9h11h12-9h11h12-11~--||--------------------------------------------||--------------------------------------------||--------------------------------------------|
| |
| William: slide down|--------------------------------------------||--------------------------------------------||--------------------------------------------||--------------------------------------------||--7~------------------------------7/--------||--------------------------------------------|
Bart:|-------------------------------|-------------------------------||-------------------------------|-------------------------------||-------------------------------|-------------------------------||--2--2------2--2.--------------|--2--2------2--2.--------------||--2--2--x-x-2--2.--------------|--2--2--x-x-2--2.--------------||--0--0--x-x-0--0.--------------|--0--0--x-x-0--0.--------------|
| |
| William:|-------------------------------|-------------------------------||-------------------------------|-------------------------------||-------------------------------|-------------------------------||--2--2------2--2---------------|--2--2------2--2---------------||--2--2--x-x-2--2---------------|--2--2--x-x-2--2---------------||--0--0--x-x-0--0-0-0-0-3-0-2-0-|--0--0--x-x-0--0-0-0-0-3-0-2-0-|
Bart:|-------------------------------|-------------------------------||-------------------------------|-------------------------------||-------------------------------|-------------------------------||--2--2------2--2.--------------|--2--2------2--2.--------------||--2--2--x-x-2--2.--------------|--2--2--x-x-2--2.--------------||--0--0--x-x-0--0.--------------|--0--0--x-x-0--0.--------------|
| |
| William:|-------------------------------|-------------------------------||-------------------------------|-------------------------------||-------------------------------|-------------------------------||--2--2------2--2---------------|--2--2------2--2---------------||--2--2--x-x-2--2---------------|--2--2--x-x-2--2---------------||--0--0--x-x-0--0-0-0-0-3-0-2-0-|--0--0--x-x-0--0---------------|
QUO VADIS ROCK!!! _____________________________________________ _____________________________________________ ___+88_______________________________________ ____+880_____________________________________ ____++88_____________________________________ ____++88_____________________________________ _____+880_________________________++_________ _____+888________________________+88_________ _____++880______________________+88__________ _____++888_____+++88__________+++8___________ _____++8888__+++8880++88____+++88____________ _____+++8888+++8880++8888__++888_____________ ______++888++8888+++888888++888______________ ______++88++8888++8888888++888_______________ ______++++++888888888888888888_______________ _______++++++88888888888888888_______________ _______++++++++000888888888888_______________ ________+++++++000088888888888_______________ _________+++++++00088888888888_______________ __________+++++++088888888888________________ __________+++++++088888888888________________ ___________+++++++8888888888_________________
Tap to rate this tab
 
# A B C D E F G H I J K L M N O P Q R S T U V W X Y Z