Racer X - Technical Difficulties tab version 2

Technical Difficultiesby: Racer X|----------------------------------|----------------------------------------||----------------------------------|----------------------------------------||o---------------------------------|----------------------------------------||o-5-----4-----5-----4-----4-5-----|--5-----4-----5-----4~------------------||----3-3---3-3---3-3---3-3-----3-3-|----3-3---3-3---3-3-----------7-9-10----||----------------------------------|-----------------------7-8-10-----------|
Ending one:|-----------------------------------|-------------------------------------||-----------------------------------|-------------------------------------||-----------------------------------|-------------------------------------||-10-----9-----10-----9-----7-9-----|-10-----9-----10-----9~--------------||----7-7---7-7----7-7---7-7-----7-7-|----7-7---7-7----7-7----------3-5-7--||-----------------------------------|------------------------3-5-7--------|
Ending two:|---------------------------------|-----------------------------------------||---------------------------------|-----------------------------------------||---------------------------------|-----------------------------------------||10-----9-----10-----9-----7-9----|-10-----9-----10-----9~----------10-12-14||---7-7---7-7----7-7---7-7-----7-7|----7-7---7-7----7-7----10-12-14---------||---------------------------------|-----------------------------------------|
-------------------------------------|----------------------------------------|----------------------------------a--|----------------------------------------|12-----11-----12-----11-----11-12-----12-----11-----12-----11~----------------|--10-10--10-10--10-10--10-10-----10-10--10-10--10-10--10-10---------14-16-17--|-------------------------------------|-----------------------14-15-17---------|-------------------------------------|----------------------------------------|
|-------------------------------------------------||-------------------------------------------------||-17-------16-------17-------16-------14-16-------||----14-14----14-14----14-14----14-14-------14-14-||-------------------------------------------------||-------------------------------------------------|
|-------------------------14^12^10-----------||--------------------------------------------||-17-----16-----17-----16~---------14^12^11--||---14-14--14-14--14-14----------------------||--------------------------------------------||--------------------------------------------|
|--------------------------17^14^11---------------||-------------------------------------------------||-12-----11-----12-----11~----------17^14^11------||----9-9----9-9----9-9----------------------------||-------------------------------------------------||-------------------------------------------------|
|----------------------------------15-17-19--||-------------------------15-17-19-----------||-17-----16-----17-----16~-------------------||---13-13--13-13--13-13----------------------||--------------------------------------------||--------------------------------------------|
|-20-19-17----------------------------------------------------------------||----------20-19-17-20-19-17----------------------------------------------||----------------------------19-17-16-19-17-16----------------------------||----------------------------------------------19-17-16-19-17-16----------||----------------------------------------------------------------19-17-15-||-------------------------------------------------------------------------|
---------------------|---------------------|---------------------|---------------------|--19-17-15-----------|----------19-17-15---|
--------------------------------| |---------------------------------| x2--------------------------------| |---------------------------------|-------------------A.H.--------o| |o-------------------------------o|--------------------14~~-\-----o| |o-------------------------------o|----------14-15-17--------------| |-0-0-----0-0-----0-----0---0-----|-14-15-17-------------------x\--| |-----3^0-----3^0---3^0-------3^0-|
|1.|---------------------------|-------------------------------||---------------------------|-------------------------------||---------------------------|-9--9^7---7-------------------o||-2-2^0---0-----------------|--------9---9^7----7----------o||-------2---2^0---0---------|----------------10---10bý-7----||---------------3---3bý-0---|-------------------------------|
|2.|---------------------------------||-17-17^15--15--------------------||---------16--16^14--14-----------||------------------17--17bý-14----||---------------------------------||---------------------------------|
|---------------------------------|---------------------------------||---------------------------------|---------------------------------||o--------------------------------|---------------------------------||o--------------------------------|---------------------------------||---------------------------------|---------------------------------||-5-5-3^0-5-5-3^0-5-5-3^0-5-5-3^0-|-7-7-5^0-7-7-5^0-7-7-5^0-7-7-5^0-|
|--------------------------------||--------------------------------||--------------------------------||--------------------------------||--------------------------------||8-8-7^0-8-8-7^0-8-8-7^0-8-8-7^0-|
|1. |2.|---------------------------------||---------------------------------------||---------------------------------||---------------------------------------||--------------------------------o||---------------------------------------||-0-0-----0-0-----2^0-4^0-5^0-7~-o||-----------------------7--9^7-10^7-12~-||-----3^0-----3^0-----------------||---------------------------------------||---------------------------------||-10-10-8^0-10-10-8^0-------------------|
|-----------------------||-----------------------||-9-9^7-7------------2--||------9-9^8^7--7------5||-------------10-10-7---||-----------------------|
|----------------|-------------------|||----------------|--3----------------|||------------2---|--2----------------|||-(5)---2bý--2---|--0----------------|||------------0---|-------------------|||----------------|-------------------||
Bridge|-------------------|--------------------|-------------------||-5------5----------|-5------5-----------|-8------8----------||-4------4----------|-4------4-----------|-7------7----------||-2------2----------|-2------2-----------|-5------5----------||-------------------|--------------------|-------------------||---0000---0000-0-0-|---0000---0000-0000-|---0000---0000-0-0-|
|-------------------|--------------||-8-----8-----------|-10-----10----||-7-----7-----------|--9------9----||-5-----5-----------|--7------7----||-------------------|--------------||---000---0000-0000-|----0000------|
-----------|---------------------|---------------------|-----------|-10-----10-----------|-13------13----------|-----------|--9------9-----------|-12------12----------|-----------|--7------7-----------|-10------10----------|-----------|---------------------|---------------------|-0000-0-0--|----0000---0000-0000-|----0000----0000-0-0-|
-----------------------|---------------|-13------13------15\---|---------------|-12------12------14\---|-(repeat riff)-|-10------10------12\---|----SOLO-------|-----------------------|---------------|----0000----0000-------|---------------|
Guitar Solo:|----------|-------|--------|--------|------------|-------------|||--5~~~~~--|-8~~~~-|--10~~~-|-13~~~~-|------15~~~-|--15bf~~~~---|||----------|-------|--------|--------|------------|-------------|||----------|-------|--------|--------|------------|-------------|||----------|-------|--------|--------|------------|-------------|||----------|-------|--------|--------|------------|-------------||
|--------------------------------------------------------------||---------------------8-10-------------------------------17-20-||---------7-9-----7-9------------------16-19-------16-19-------||-----7-9-----7-9----------------17-19-------17-19-------------||-7-10----------------------17-19------------------------------||--------------------------------------------------------------|
|---------17bf-(rb)^15-|-17~~-|-22bf--22-20--19-20--19^20^19\17-||-19~~~~---------------|------|---------------------------------||----------------------|------|---------------------------------||----------------------|------|---------------------------------||----------------------|------|---------------------------------||----------------------|------|---------------------------------|
|-19-17^19^17\15--17-15^17^15\14-15--12^14^12----12-|---------||---------------------------------------------15----|-15bf~~~-||---------------------------------------------------|---------||---------------------------------------------------|---------||---------------------------------------------------|---------||---------------------------------------------------|---------|
-12----------12-------------------------|----15^12-------15^14^12----12----------|----------15-------------15----15^14^12-|----------------------------------------|----------------------------------------|----------------------------------------|
---------------------------------|--------------------|---------------------------------|--------------------|----12-14bf-(rb)^12^14^12\9~~~~~-|--11bý~~~------9-11-|-14------------------------------|-------------10-----|---------------------------------|-----------10-------|---------------------------------|---------12---------|
|---------------14bý-14-12----12-|--------14^10^14^10-------------||--------------------------15----|-15~~~--------------------------||(11)-11bý-11-9------------------|--------------------14-12^11----||--------------------------------|-----------------------------12-||--------------------------------|--------------------------------||--------------------------------|--------------------------------|
----------10------------------|------------------------------|-11^12^14---14^12^11---11^12--|---------------------12-------|------------------------------|------------------------------|
----10----------------------10^14^10-10^14^12^10-|-------------------------------------------------|^14----14^12^11----11^12^14----------------------|----------------12-------------------------------|-------------------------------------------------|-------------------------------------------------|
----10-12-10-12-10---------------------------|-13----------------13----13------------------|----------------------12----12-11-9-11-11bý--|---------------------------------------------|---------------------------------------------|---------------------------------------------|
|-------------------------------------||-------------------------10-11-12----||-(rb)^9-------------9-12-------------||--------10-----9-12------------------||------------12-----------------------||-------------------------------------|
-12----------------------------------------------------12--------12-|----15-12----12-------------------12-15-12-14-12--12-15--15-12-15---|----------15---15-14-12--12-14-15---------------15------------------|-----------------------14-------------------------------------------|--------------------------------------------------------------------|--------------------------------------------------------------------|
|----17-15----15-17-19-17-15----15-17bf~~~~--||-17-------17----------------17--------------||--------------------------------------------||--------------------------------------------||--------------------------------------------||--------------------------------------------|
--------------------|-------|-------------|------|--------------------|-------|-------------|------|-14bf-trem.picking--|-(14)--|-(14)--14-12-|-14~~~|--------------------|-------|-------------|------|--------------------|-------|-------------|------|--------------------|-------|-------------|------|
|-----------------------12-14-15-||-15bf~~~~~~~~~~~~~~-------------||--------------------------------||--------------------------------||--------------------------------||--------------------------------|
-14-15-14-12----12-14-15-14-15-14-12----12-14-12-14-12----12-|-------------15----------------------15----------------15----|-------------------------------------------------------------|-------------------------------------------------------------|-------------------------------------------------------------|-------------------------------------------------------------|
|-15-14-15-14-12----12-14-12-14-15-14-12----12-15-12-14-12----12-14-15-14-12||----------------15----------------------15----------------15---------------||---------------------------------------------------------------------------||---------------------------------------------------------------------------||---------------------------------------------------------------------------||---------------------------------------------------------------------------|
|-15-17-15-14----15-||-------------17----||-------------------||-------------------||-------------------||-------------------|
----17-15-17-15-14----15-17-15-14----17bf~~~~~~~~~--|-17----------------17-------------17----------------|----------------------------------------------------|----------------------------------------------------|----------------------------------------------------|----------------------------------------------------|
--------------------------------------12--|--15--------------------------------------|--14bf------------------------------------|------------------------------------------|------------------------------------------|------------------------------------------|
|-15-12------------------------------------------------------||-------15-12-------15-12----8-----10-8----------------------||-------------14-12-------14---9-7------7-7-----9-7----------||-------------------------------------------9-7-----9-7------||-------------------------------------------------------10-7-||------------------------------------------------------------|
|-------------------||-------------------||-------------------||--------------7-9--||----7----7--9------||-10---10-----------|
----------|------------------------|------7-8-|-10-8-7-7---------------|--7-9-----|----------7-------------|----------|------------7-7---------|----------|----------------10-9----|----------|------------------------|
-----------------------------------------|-----------------------------------------|-14bf---14-12-11-12-11-12-11----11-12-14-|-----------------------------14----------|-----------------------------------------|-----------------------------------------|
|---------------------------------------------------14----------15bf-(rb)^12----||12--------------12-15-12-13-15-13-12-15-13-15-12-15---15-13-15-----------------||--14-12-11-12-14---------------------------------------------------------------||-------------------------------------------------------------------------------||-------------------------------------------------------------------------------||-------------------------------------------------------------------------------|
-------------|--------------------||---------------------------|-15bf--------|-15bf-------\-------||---------------------------|-------------|-------feedback----||--repeat to coda...---------|-------------|--------------------||---------------------------|-------------|--------------------||---------------------------|-------------|--------------------||---------------------------|
Coda:|-14-15-17-----------------------------------||----------15bf------------13-15-17-12-13-15-||----------------12-14-16--------------------||--------------------------------------------||--------------------------------------------||--------------------------------------------|
--------------------------------------------|--------------------------------------------|-14bf------------12-14-16-11-12-14-12-14-16-|--------12-14-16----------------------------|--------------------------------------------|--------------------------------------------|
|----------------------------------14----14-15-17\--||----------------15----15-17-15-17----17------------||-14-16-17-16-17----17------------------------------||---------------------------------------------------||---------------------------------------------------||---------------------------------------------------|
---------------------|---------------||---------------------|---------------||---------------------|---------------||---7----------5------|--2------------||---7----------5------|--2------------||---5----------3------|--0------------||
|---------------------------------------------||---------------------------------------------||---------------------------------------------||----------------------------2-4-5------4-5-7-||------3-5-7------5-7-9-2-3-5------3-5-7------||-3-5-7------5-7-8----------------------------|
---------------------------------------------|---------------------------------------------|----------------2-4-5------4-5-7-------5-7-9-|-----5-7-9-2-4-5------4-5-7------5-7-9-------|5-7-9----------------------------------------|---------------------------------------------|
|----------------------------------------3-5-7-||------3-5-7------5-7-8------7-8-10-3-5-7------||-2-4-5------4-5-7------5-7-9------------------||----------------------------------------------||----------------------------------------------||----------------------------------------------|
------5-7-8-------7-8-10---------8-10-12-|-5-7-8------7-8-10-------8-10-12---------|-----------------------------------------|-----------------------------------------|-----------------------------------------|-----------------------------------------|
|----------10-12-13-----------12-14-15-----------||-10-12-13-----------12-13-15-----------13-15-17-||------------------------------------------------||------------------------------------------------||------------------------------------------------||------------------------------------------------|
14-15-17----------15-17-19-20(trem. picking)--|---------15-17-19-----------------------------|----------------------------------------------|----------------------------------------------|----------------------------------------------|----------------------------------------------|
|--22bf~~~~~~~~---||-----------------||-----------------||---2-------------||---2-------------||---0-------------|
Tap to rate this tab
 
# A B C D E F G H I J K L M N O P Q R S T U V W X Y Z