Raein – She Wears My Blood tab

Raein - She Wears My Blood
Tab: Billybusa (me)
Tuning: Drop D

Guitar 1:E||-----------------------------------|----------------------------------|B||-----------------------------------|----------------------------------|G||--14--14--14--12--12--12--12-------|--10--10--10--10--10--10--10--10--|D||-----------------------------------|----------------------------------|A||-----------------------------------|----------------------------------|D||-----------------------------------|----------------------------------|
||
||Guitar 2:E||---------------------------|--------------------------|B||---------------------------|--------------------------|G||---------------------------|--------------------------|D||--7--7--7--5--5--5--5------|--3--3--3--3--3--3--3--3--|A||---------------------------|--------------------------|D||--7--7--7--5--5--5--5------|--3--3--3--3--3--3--3--3--|
|--------------------------------|--------------------------||--------------------------------|--------------------------||--9--9--9--10--10--10--10-------|--7--7--7--7--7--7--7--7--||--------------------------------|--------------------------||--------------------------------|--------------------------||--------------------------------|--------------------------|
| |
|---------------------------|--------------------------||---------------------------|--------------------------||---------------------------|--------------------------||--2--2--2--3--3--3--3------|--0--0--0--0--0--0--0--0--||---------------------------|--------------------------||--2--2--2--3--3--3--3------|--0--0--0--0--0--0--0--0--|
|-----------------------------------|----------------------------------||-----------------------------------|----------------------------------||--14--14--14--12--12--12--12-------|--10--10--10--10--10--10--10--10--||-----------------------------------|----------------------------------||-----------------------------------|----------------------------------||-----------------------------------|----------------------------------|
| |
|---------------------------|--------------------------||---------------------------|--------------------------||---------------------------|--------------------------||--7--7--7--5--5--5--5------|--3--3--3--3--3--3--3--3--||---------------------------|--------------------------||--7--7--7--5--5--5--5------|--3--3--3--3--3--3--3--3--|
|--------------------------------|--------------------------||--------------------------------|--------------------------||--9--9--9--10--10--10--10-------|--7--7--7--7--7--7--7--7--||--------------------------------|--------------------------||--------------------------------|--------------------------||--------------------------------|--------------------------|
| |
|---------------------------|--------------------------||---------------------------|--------------------------||---------------------------|--------------------------||--2--2--2--3--3--3--3------|--0--0--0--0--0--0--0--0--||---------------------------|--------------------------||--2--2--2--3--3--3--3------|--0--0--0--0--0--0--0--0--|
|-----------------------------------|----------------------------------||-----------------------------------|----------------------------------||--14--14--14--12--12--12--12-------|--10--10--10--10--10--10--10--10--||-----------------------------------|----------------------------------||-----------------------------------|----------------------------------||-----------------------------------|----------------------------------|
| |
|---------------------------|--------------------------||---------------------------|--------------------------||---------------------------|--------------------------||--7--7--7--5--5--5--5------|--3--3--3--3--3--3--3--3--||---------------------------|--------------------------||--7--7--7--5--5--5--5------|--3--3--3--3--3--3--3--3--|
|--------------------------------|--------------------------||--------------------------------|--------------------------||--9--9--9--10--10--10--10-------|--7--7--7--7--7--7--7--7--||--------------------------------|--------------------------||--------------------------------|--------------------------||--------------------------------|--------------------------|
| |
|---------------------------|--------------------------||---------------------------|--------------------------||---------------------------|--------------------------||--2--2--2--3--3--3--3------|--0--0--0--0--0--0--0--0--||---------------------------|--------------------------||--2--2--2--3--3--3--3------|--0--0--0--0--0--0--0--0--|
Fast screamy part:
Guitar 1 & 2--------------------------------------------------|--------------------------------------------------|--14--14--14--12--12--12--12--12--12--10--10--10--|--------------------------------------------------|--12--12--12--10--10--10--10--10--10---8---8---8--|--------------------------------------------------|
-----------------------------------------------|-----------------------------------------------|--10--10--10--10--9--9--9--10--10--10--10--10--|-----------------------------------------------|---8---8---8---8--7--7--7---8---8---8---8---8--|-----------------------------------------------|
-------------------------------------------|-------------------------------------------|--10--7--7--7--7--7--7--7--14--14--14--12--|-------------------------------------------|---8--5--5--5--5--5--5--5--12--12--12--10--|-------------------------------------------|
--------------------------------------------------|--------------------------------------------------|--12--12--12--12--10--10--10--10--10--10--10--10--|--------------------------------------------------|--10--10--10--10---8---8---8---8---8---8---8---8--|--------------------------------------------------|
-------------------------------------------|-------------------------------------------|--9--9--9--10--10--10--10--10--7--7--7--7--|-------------------------------------------|--7--7--7---8---8---8---8---8--5--5--5--5--|-------------------------------------------|
--------------------------------------------------|--------------------------------------------------|--14--14--14--12--12--12--12--12--12--10--10--10--|--------------------------------------------------|--12--12--12--10--10--10--10--10--10---8---8---8--|--------------------------------------------------|
Slow down...-----------------------------------------------|---------------------------|-----------------------------------------------|---------------------------|--10--10--10--10--9--9--9--10--10--10--10--10--|--10--7--7--7----7----7----|-----------------------------------------------|---------------------------|---8---8---8---8--7--7--7---8---8---8---8---8--|---8--5--5--5----5----5----|-----------------------------------------------|---------------------------|
Guitar 1:|------------------------------------------||------------------------------------------||------------------------------------------||--(5)-------(5)-------(5)-------(7)-------||-------(3)-------(3)-------(3)-------(5)--||------------------------------------------|
|
|Guitar 2:|------------------------------------------||------------------------------------------||--7~--------------------------------------||------------------------------------------||--5~--------------------------------------||------------------------------------------|
|------------------------------------------|--------------------------||------------------------------------------|--------------------------||------------------------------------------|-----------------7--7--7--||--(7)-------(7)-------(7)-------(7)-------|--7--7--7--7--7--x--x--x--||-------(5)-------(5)-------(5)-------(5)--|--5--5--5--5--5--5--5--5--||------------------------------------------|--------------------------|| Pm---------->
|
|--------------------------|--------------------------||--------------------------|--------------------------||--------------------------|--------------------------||--7--7--7--7--7--7--7--7--|--7--7--7--7--7--7--7--7--||--5--5--5--5--5--5--5--5--|--5--5--5--5--5--5--5--5--||--------------------------|--------------------------| Pm----------------------------------------------->
Clean Vocals:
---------------------|--------------------|---------------------|---------------------|--------------------|---------------------|--7----7--------7----|-----------7--------|--9----9--------9----|--x----x--------x----|-----------x--------|--x----x--------x----|--5----5--------5----|-----------5--------|--7----7--------7----|---------------------|--------------------|---------------------|
--------------------|---------------------|--------------------|--------------------|---------------------|--------------------|-----------9--------|--5----5--------5----|-----------5--------|-----------x--------|--x----x--------x----|-----------x--------|-----------7--------|--3----3--------3----|-----------3--------|--------------------|---------------------|--------------------|
------------------------|---------------------|---------------------|------------------------|---------------------|---------------------|--12----12--------12----|-----------12--------|--7----7--------7----|---x-----x---------x----|------------x--------|--x----x--------x----|--10----10--------10----|-----------10--------|--5----5--------5----|------------------------|---------------------|---------------------|
--------------------|---------------------|--------------------|--------------------|---------------------|--------------------|-----------7--------|--7----7--------7----|-----------7--------|-----------x--------|--x----x--------x----|-----------x--------|-----------5--------|--5----5--------5----|-----------5--------|--------------------|---------------------|--------------------|
---------------------|--------------------|---------------------|---------------------|--------------------|---------------------|--5----5--------5----|-----------5--------|--5----5--------5----|--x----x--------x----|-----------x--------|--x----x--------x----|--3----3--------3----|-----------3--------|--3----3--------3----|---------------------|--------------------|---------------------|
--------------------|----------------------|---------------------|--------------------|----------------------|---------------------|-----------5--------|--7----7----7----7----|-----------7----7----|-----------x--------|--x----x----x----x----|-----------x----x----|-----------3--------|--5----5----5----5----|-----------5----5----|--------------------|----------------------|---------------------|
----------------------|---------------------|----------------------|----------------------|---------------------|----------------------|--9----9----9----9----|-----------9----9----|--5----5----5----5----|--x----x----x----x----|-----------x----x----|--x----x----x----x----|--7----7----7----7----|-----------7----7----|--3----3----3----3----|----------------------|---------------------|----------------------|
---------------------|----------------------|---------------------|---------------------|----------------------|---------------------|-----------5----5----|--5----5----5----5----|-----------5----5----|-----------x----x----|--x----x----x----x----|-----------x----x----|-----------3----3----|--3----3----3----3----|-----------3----3----|---------------------|----------------------|---------------------|
----------------------|---------------------|----------------------|----------------------|---------------------|----------------------|--7----7----7----7----|-----------7----7----|--9----9----9----9----|--x----x----x----x----|-----------x----x----|--x----x----x----x----|--5----5----5----5----|-----------5----5----|--7----7----7----7----|----------------------|---------------------|----------------------|
---------------------|----------------------|---------------------|---------------------|----------------------|---------------------|-----------9----9----|--5----5----5----5----|-----------5----5----|-----------x----x----|--x----x----x----x----|-----------x----x----|-----------7----7----|--3----3----3----3----|-----------3----3----|---------------------|----------------------|---------------------|
----------------------|---------------------|-----------------------|----------------------|---------------------|-----------------------|--5----5----5----5----|-----------5----5----|*--7----7----7----7----|--x----x----x----x----|-----------x----x----|*--x----x----x----x----|--3----3----3----3----|-----------3----3----|---5----5----5----5----|----------------------|---------------------|-----------------------|
-------------------|----------------------|-------------------|-------------------|----------------------|-------------------|--7----------------|--5----5----5----5----|--5----------------|--x----------------|--7----7----7----7----|--7----------------|--5----------------|--5----5----5----5----|--5----------------|-------------------|----------------------|-------------------|
----------------------|--------------------||----------------------|--------------------||--5----5----5----5----|--5----------------*||--7----7----7----7----|--7----------------*|| Repeat for the rest of the song--5----5----5----5----|--5-----------------||----------------------|--------------------||
Please rate this tab:
x1.0