Rage Against The Machine – Renegades Of Funk tab ver. 2

This song is Renegades of Funk by Rage Against The Machines, one of the greatest bands 
there.

This song is in drop d.


e|12---12---12---12---14---14---14---14----| X2b|---13---13---13---13---16---16---16---16-|g|-----------------------------------------|d|-----------------------------------------|a|-----------------------------------------|d|-----------------------------------------| intro
|------------------------------------------| X3|------------------------------------------||------------------------------------------||10-12---0---10-12---0---10-12-0---3/5-----||10-12---0---10-12---0---10-12-0---3/5-----||10-12---0---10-12---0---10-12-0---3/5-----| main riff
|------------------------------------------| X2|------------------------------------------||------------------------------------------||------------------------------------------||5----------------5------------------------||--5--3-----3-------5--0-----0-------------| bridge #1
|------------------------------------------| X2|------------------------------------------||------------------------------------------||10-12---0---10-12---0---10-12-0---3/5-----||10-12---0---10-12---0---10-12-0---3/5-----||10-12---0---10-12---0---10-12-0---3/5-----| main riff again
|--------------| X2|--------------||--------------||5-0-0---------||5-0-0---------||5-0-0---------| bridge #2
|------------------------------------------| X2|------------------------------------------||------------------------------------------||10-12---0---10-12---0---10-12-0---3/5-----||10-12---0---10-12---0---10-12-0---3/5-----||10-12---0---10-12---0---10-12-0---3/5-----| main riff again
|------------------------------------------| X2|------------------------------------------||------------------------------------------||------------------------------------------||5----------------5------------------------||--5--3-----3-------5--0-----0-------------| bridge #1
d|12---12---12---12---14---14---14---14----| X2a|---13---13---13---13---16---16---16---16-|d|-----------------------------------------|g|-----------------------------------------|b|-----------------------------------------|e|-----------------------------------------| solo-ish thing again
|------------------------------------------| X2|------------------------------------------||------------------------------------------||10-12---0---10-12---0---10-12-0---3/5-----||10-12---0---10-12---0---10-12-0---3/5-----||10-12---0---10-12---0---10-12-0---3/5-----| main riff again...
|--------| X2|--------||--------||5-7-----||5-7-----||5-7-----| bridge #3
IMPORTANT; For this riff start with your string already bent, then pick and straighten, bend again, repeat.|-----------------| X10|-----------------|
|3benddown-bendup-||-----------------||-----------------||-----------------| drum/guitar solo
|------------------------------------------| X8|------------------------------------------||------------------------------------------||10-12---0---10-12---0---10-12-0---3/5-----||10-12---0---10-12---0---10-12-0---3/5-----||10-12---0---10-12---0---10-12-0---3/5-----| main riff for last time.
And enjoy! I do aim to please, so please, if you see any mistakes or goof up's let me at emomother@gmail.com and find me at my youtube channel, musicbruise. IN NO WAY SHAPE OR FORM DO I OWN THIS SONG. IT IS PROPERTY OF RAGE AGAINST THE MACHINES THEIR RECORDING COMPANY.
Please rate this tab:
x1.0