Rage Against The Machine - Ashes In The Fall tab

Tune down one whole step:D,G,C,F,A,D.
Key:Natural harmonic <7>
Pinched harmonic [6]
Ghost note (8)
Bend note ^
Pick scratch #
Intro-repeat x2

|--19-0-0-19-0-0-19--19-0-0-19-0-0-19--20-0-0-20-0-0-20--|--------------------------------------------------------|--------------------------------------------------------|--------------------------------------------------------|--------------------------------------------------------|--------------------------------------------------------
|--20-0-0-20-0-0-20--22-0-0-22-0-0-22--22-0-0-22-0-0-22--|--------------------------------------------------------|--------------------------------------------------------|--------------------------------------------------------|--------------------------------------------------------|--------------------------------------------------------
VerseWith delay and whammy pedal**Digitech whammy pedal set for 2 octaves higher when depressed|--12-----(12)----(12)--------------10-----(10)----(10)---|---------------------------------------------------------|---------------------------------------------------------|---------------------------------------------------------|---------------------------------------------------------|---------------------------------------------------------
Chorus*harmonized arranged for guitar.|----------5---------5-----------|----------3---------3-----------|----------6---------6-----------|----------4---------4-----------|--------------------------------|--------------------------------
BridgeWhammy pedal off|-----------------------------------------------------------------|---------------[2]-----------------------------------------------|---------------------------------------------------<1.75>--------|----------------------------5-------------------x----------5---5-|----------------------4---------------<2.3>-----x----------------|--0----------------------0-------------------0-------------------
|----------------------------------------------------------|-------------11--9----------------<3>-<5>----<3>----------|-------------11--9----------------<2>-<4>----<2>----------|----------------------------------------------------------|--5h7-------------------------------------4^----------<2>-|--0------------------0------0---0----------------3^-------
|----------------------------------14----------------|----------------------------------14--15------------|-----------2-0------------------------12------------|-----------2-0--------------------------------------|--<2>-<2>----------<2>-<2>-2--2-----------------7---|--<0>-----------0-------------0----------0---0------
|------------------------------------------------------|------------------------------------------------------|-----------xxxxxx-------xxx-7---xxxx------------<4>^--|--5--5--7--xxxxxx-----5-xxx-7-5-xxxx-5--5-5------x----|-----------xxxxxx--7----xxx-7---xxxx--------7---<4>^--|--------------------------------------------0---------
|-------------------------------------------------------|-------------------------------------------------------|--(<4>)^-(<4>)-------------------------------xxx-------|----x------x----------5-----<5>^-----(<5>)^--xxx-5-5-5-|--(<4>)^-(<4>)-4--7---------<2>^-----(<2>)^------------|--------------------------0----------------------------
|-------------------12--|-------------------12--|-------------------11--|-------5--x--------11--|-------------x---------|--0--------------------
|---------------------------------------------|---------------------------------------------|---------------------------------------------|---------------------------------------------|--14------14------14----14------14------14---|-----0--0----0--0----------0--0----0--0------
|---------------------------------------------------|---------------------------------------------------|---------------------------------------------------|---------------------------------------------------|--10------10------###----10------10------10---(10)-|-----0--0----0--0-###------0--0----0--0------------
|---------------------------------------------------|---------------------------------------------------|---------------------------------------------------|---------------------------------------------------|---------------------------------------------------|--0-(0)-(0)-(0)-(0)-(0)---0-(0)-(0)-(0)-(0)-(0)----
|---------------------------------------------------|---------------------------------------------------|--13-------------13---------------13---------------|------------14---------------14----------------14--|---------------------------------------------------|---------------------------------------------------
well thats it!, its not the easiest song in the world.. but it just goes to show how good Tom Morrello is.Any questions etc, e-mail ma at dont_fall_asleep_or_ill_mutilate_ur_genitals@hotmail.com
Tap to rate this tab
 
# A B C D E F G H I J K L M N O P Q R S T U V W X Y Z