Rage Against The Machine – Vietnow tab

Vietnow
~~~~~~~~~~~~~~~~~~~~~~~~~~~~~~~~~~~~~~~~~~~~~~~~~~~~~~~~

Intro|-------------------------------------------------||-------------------------------------------------||-------------------------------------------------||-------------------------------------------------||-4---4---7-7-----4---4---7-7---------------------||-2---2---5-5-----2---2---5-5---------------------|
|---------------------------------|---------------------------------||---------------------------------|---------------------------------||---------------------------------|---------------------------------||---------------------------------|---------------------------------||-4-4-4-4-4-4-4-4-4---4---7-7-----|-4---4---7-7---------------------||-0-2-2-0-2-2-2-2-2---2---5-5-----|-2---2---5-5---------------------|
|---------------------------------| |---------------------------------| |---------------------------------| |---------------------------------| |-4-4-4-4-4-4-4-4-4---4---7-7-----| |-0-2-2-0-2-2-2-2-2---2---5-5-----|
|-------------------------------------------------||-------------------------------------------------||-------------------------------------------------||-------------------------------------------------||-4---4---7-7---feedback-w/vol.-swell-------------||-2---2---5-5-------------------------------------|
Chorus|-------------------------------------------------||-------------------------------------------------||-------------------------------------------------||-------------------------------------------------||-4---4---7-7-----4---4---7-7---------------------||-2---2---5-5-----2---2---5-5---------------------|
|---------------------------------|---------------------------------||---------------------------------|---------------------------------||---------------------------------|---------------------------------||---------------------------------|---------------------------------||-4-4-4-4-4-4-4-4-4---4---7-7-----|-4---4---7-7---------------------||-0-2-2-0-2-2-2-2-2---2---5-5-----|-2---2---5-5---------------------|
1st Verse|---------------------------------||---------------------------------||---------------------------------||---------------------------------||-4-4-4-4-4-4-4-4-----------------||-0-2-2-0-2-2-2-2-----------------|
Pre-chorus|---------------------------------||---------------------------------||---------------------------------||-4-4-----------------------------||-----------------------*---------||-----0---2---0---5-----6r5---0---| * pre-bend and release
|---------------------------------||---------------------------------||---------------------------------||-4-4-----------------------------||---------------------------------||-----0---2---0---5-----6r5---0---|
|---------------------------------||---------------------------------||---------------------------------||-4-4-----------------------------||---------------------------------||-----0---2---0---5b6-----4---0---|
|---------------------------------||---------------------------------||---------------------------------||-4-4-x-x-x-x-x-x-x-x-x-x-x-x-x-x-||-----x-x-x-x-x-x-x-x-x-x-x-x-x-x-||-----x-x-x-x-x-x-x-x-x-x-x-x-x-x-|
2nd Verse |---------------------------------||---------------------------------||---------------------------------||---------------------------------||-4-4-4-4-4-4-4-4-----------------||-0-2-2-0-2-2-2-2-----------------|
Bridge|--gtr. 2 (right)-----------------| |-8---7---8---7---8---7---8---7---||-6---6---6---6---6---6---6---6---||-4---4---4---4---4---4---4---4---||-9-9-----------------------------||--gtr. 1 (left)------------------|
gtr. 1 out play 10 times
|---------------------------------| |-8---7---8---7---8---7---8---7---||-6---6---6---6---6---6---6---6---||-4---4---4---4---4---4---4---4---||---------------------------------||---------------------------------|
|---------------------------------| |-8---7---8---7-------------------||-6---6---6---6-------------------||-4---4---4---4---4-2-4---4-2-4---||---------------------------------||---------------------------------|
gtrs. 1 & 2 (w/wah).play 2 times.
|---------------------------------| |---------------------------------||---------------------------------||-----4---------------------------||-3---------------3---------------||---------------------0-----------|
|---------------------------------| |---------------------------------||---------------------------------||-----4---------------------------||-----------------3---------------||---------------------0-----------|
|---------------------------------| |---------------------------------||---------------------------------||-----4---------------------------||-----------------3---------------||---------------------0-----------|
|---------------------------------| |---------------------------------||---------------------------------||-----4-----------4-2-4---4-2-4---||---------------------------------||---------------------------------|
Interlude|-------------------------------------------------||-------------------------------------------------||-------------------------4-/-6-------------------||-------------------------------------------------||-4---4---7-7-----4---4---2-/-4-------------------||-2---2---5-5-----2---2---------------------------|
play 3 times|---------------------------------|---------------------------------||---------------------------------|---------------------------------||---------------------------------|---------4-/-6-------------------||---------------------------------|----------------------3rd time---||-4-4-4-4-4-4-4-4-4---4---7-7-----|-4---4---2-/-4------------5------||-0-2-2-0-2-2-2-2-2---2---5-5-----|-2---2--------------------3------|
|-----------------| |-----------------| |-----------------| |-----------------| |--4-------5------| |--2-------3------|
Outro|---------------------------------||---------------------------------||---------------------------------||---------------------------------||-4-4-4-4-4-4-4-4---x-x---x---x---||-0-2-2-0-2-2-2-2---x-x---x---x---|
gtr. 2
|---------------------------------||---------------------------------||-------15------------------------||-------tr14----------------------||-------13tr----------------------||---------12----------------------|
| || || gtr. 1 ||---------------------------------||---------------------------------||---------------------------------||---------------------------------||-4-4-4-4-4-4-4-4---x-x---x---x---||-0-2-2-0-2-2-2-2---x-x---x---x---|
play 3 times
|---------------------------------||---------------------------------||---------------------------------||-(14)----------------------------||--tr----------------(continue)---||-(12)----------------------------|
| || || ||---------------------------------||---------------------------------||---------------------------------||---------------------------------||-4-4-4-4-4-4-4-4---x-x---x---x---||-0-2-2-0-2-2-2-2---x-x---x---x---|
|---------------------------------||---------------------------------||---------------------------------||---------------------------------||-4-4-4-4--5-------4-------5------||-0-2-2-0--3-------2-------3------|
play 3 times
|---------------------------------||---------------------------------||---------------------------------||---------------------------------||--4-------5-------4-------5------||--2-------3-------2-------3------|
(gtr. 1 out) (free time) gtr. 2
|---------------------------------||---------------------------------||---------------------------------||-(14)--------------15------------||--tr---------------tr------------||-(12)--------------13------------|
Please rate this tab:
x1.0