Rainbow - Too Late For Tears tab


                               TOO LATE FOR TEARS
                             As recorded by Rainbow
                    (From the 1996 Album STRANGER IN US ALL)

Words and Music by Ritchie Blackmore, Doogie White and Pat Regan


Gtr I (E A D G B E) - 'Gtr I'
Gtr II (E A D G B E) - 'Gtr II'

 Intro

         Gm

Gtr I|----------||---------------|---------------||----------||---------------|---------------||----------||---------------|---------------||----------||---------------|---------------||----------||---------------|---------------||--------3-||-------------3-|-------------3-|
|
| Gtr II|----------||---------------|---------------||----------||---------------|---------------||----------||--3-2---2-0----|--3-2---2-0----||----------||--3-2---2-0----|--3-2---2-0----||----------||---------------|---------------||--------3-||------3------3-|------3------3-|
C|---------------|---------------------||---------------|---------------------||---------------|---------------------||-------------5-|-(5)--3--------------||---------------|---------3h4-3-1-3---||---------------|---------------------|
|
|---------------|---------------------||---------------|---------------------||--3-2---2------|---------------------||--3-2---2----5-|-(5)--3--------------||---------------|---------3h4-3-1-3---||------3---3----|---------------------|
Bb F Gm Bb C|------------|-----------||-------------|--------------||------------|-----------||-------------|--------------||------------|-----------||-------------|--------------||------------|-----------||-------------|--------------||-(3)--------|-1---------||-------------|--------------||------------|------1----||-------------|--------------|
|
|------------|-----------||-3-----------|--------------||------------|-----------||-3-------3-3-|-3-------5-5--||------------|-----------||-3-------3-3-|-3-------5-5--||------------|-----------||-5-------3-3-|-3-------5-5--||--3---------|-1---------||-5-------1-1-|-1-------3-3--||------------|------1----||-3-----------|--------------|
Eb F|----------------------------------|------------------|||-----------------3----------------|------------------|||-5b7==(5)r=5-3-----5b7==(5)r5-3---|-5-3--------------|||---------------5----------------5-|-----5-(5)--------|||----------------------------------|------------------|||----------------------------------|------------------||
|
|----------------------------------|------------------|||-------5--------------------------|-8----------10----|||-------5--------------------------|-8----------10----|||-------5--------------------------|-8----------10----|||-------3--------------------------|-6-----------8----|||----------------------------------|------------------||
1st Verse Gm F|-----------------|-----------------||-----------------|-----------------||-----------------|-----------------||-----------------|-----------------||-----------------|-----------------||-----------------|-----------------|
|
|-----------------|-----------------||-----------------|-----------------||-----------------|-----------------||-----5-------5---|-----3-------3---||-----5-------5---|-----3-------3---||-3-3---3-3-3---3-|-1-1---1-1-1---1-|
Gm F|-----------------|-----------------|-----------------|------------------||-----------------|-----------------|-----------------|------------------||-----------------|-----------------|-----------------|------------------||-----------------|-----------------|-----------------|------------------||-----------------|-----------------|-----------------|------------------||-----------------|-----------------|-----------------|------------------|
|
|-----------------|-----------------|-----------------|------------------||-----------------|-----------------|-----------------|------------------||-----3---3-3---3-|-----3---3-3---3-|-----------------|------------------||-----3---3-3---3-|-----3---3-3---3-|-----5-------5---|-----3-------3----||-----------------|-----------------|-----5-------5---|-----3-------3----||-3-3---3-----3---|-3-3---3-----3---|-3-3---3-3-3---3-|-1-1---1-1-1---1--|
Gm C Gm|-----------------|-----------------|-----------|------------------||-----------------|-----------------|-----------|------------------||-----------------|-----------------|-----------|------------------||-----------------|-----------------|-----------|------------------||-----------------|-----------------|-----------|------------------||-----------------|-----------------|-----------|------------------|
|
|-----------------|-----------------|-----------|------------------||-----------------|-----------------|-----------|------------------||-----3---3-3---3-|-----3---3-3---3-|----5------|-----3---3-3---3--||-----3---3-3---3-|-----3---3-3---3-|----5------|-----3---3-3---3--||-----------------|-----------------|-3---------|------------------||-3-3---3-----3---|-3-3---3-----3---|-----------|-3-3---3-----3----|
C Gm C Eb|-----------|-----------------|-----------|----------------||-----------|-----------------|-----------|----------------||-----------|-----------------|-----------|----------------||-----------|-----------------|-----------|----------------||-----------|-----------------|-----------|----------------||-----------|-----------------|-----------|----------------|
|
|-----------|-----------------|-----------|----------------||-----------|-----------------|-----------|----------------||----5------|-----3---3-3---3-|----5------|-----8S6-8-8----||----5------|-----3---3-3---3-|----5------|-----8S6-8-8----||-3---------|-----------------|-3---------|-6-6------------||-----------|-3-3---3-----3---|-----------|----------------|
Gm Bb C|--------------------|-------------------||--------------------|-------------------||----5b7-(5)---------|-(5)----(5)-5--5---||--------------------|-------------------||--------------------|-------------------||--------------------|-------------------|
|
|-3------------------|-------------------||-3--------------3-3-|--3------------5-5-||-3--------------3-3-|--3------------5-5-||-5--------------3-3-|--3------------5-5-||-5--------------1-1-|--1------------3-3-||-3------------------|-------------------|
Eb F|--------------|-------------------------------------|||--------------|-------------------------------------|||-(5)------3-5-|-5b7==(5)r5p3---5p3------------------|||--------------|--------------5-----5------3---------|||--------------|----------------------3S=5---3-4-3-1-|||--------------|-------------------------------------||
|
|--------------|-------------------------------------|||--5-----------|-------8----------------10-----------|||--5-----------|-------8----------------10-----------|||--5-----------|-------8----------------10-----------|||--3-----------|-------6-----------------8-----------|||--------------|-------------------------------------||
2nd Verse Gm F Gm|-----------------|-----------------|-----------------------------||-----------------|-----------------|-------------13b15---13b15---||-----------------|-----------------|-----------------------------||-----------------|-----------------|-----------------------------||-----------------|-----------------|-----------------------------||-3---------------|-----------------|-----------------------------|
|
|-----------------|-----------------|-----------------------------||-----------------|-----------------|-----------------------------||-----------------|-----------------|-----3---3-3---------------3-||-----5-------5---|-----3-------3---|-----3---3-3---------------3-||-----5-------5---|-----3-------3---|-----------------------------||-3-3---3-3-3---3-|-1-1---1-1-1---1-|-3-3---3-----------3---------|
|---------------------------------------------||-13b15---13b15---13b15---13b15r(13)p11----11-||---------------------------------------12----||---------------------------------------------||---------------------------------------------||---------------------------------------------|
|
|---------------------------------------------||---------------------------------------------||---------------3----------3------3---------3-||---------------3----------3------3---------3-||---------------------------------------------||--3----3---------------3----------------3----|
F|---------------------|-----------------||-(11)\---------------|-----------------||---------------------|-----------------||---------------------|-----------------||---------------------|-----------------||---------------------|-----------------|
|
|---------------------|-----------------||---------------------|-----------------||---------------------|-----------------||---------5-------5---|-----3-------3---||---------5-------5---|-----3-------3---||---3---3---3-3-3---3-|-1-1---1-1-1---1-|
Gm|---18b20-(18)-18b20==(18)r==18-15----15------------------||----------------------------------18----18-15------------||----------------------------------------------17b19-(17)-||---------------------------------------------------------||---------------------------------------------------------||---------------------------------------------------------|
|
|---------------------------------------------------------||---------------------------------------------------------||-----------------------3-----3--3-----------3------------||-----------------------3-----3--3-----------3------------||---------------------------------------------------------||-3---------3--------------3-----------3------------------|
|----15----------------------------------|||-15----15-------------------------------|||----------18-17-15------17----15\-------|||-------------------17------17-----------|||----------------------------------------|||----------------------------------------||
|
|----------------------------------------|||----------------------------------------|||--------------3----------------3--3---3-|||--------------3----------------3--3---3-|||----------------------------------------|||--3-----3-------------3-------------3---||
C Gm|-----------|----------------------------------||-----------|---------6-------6-------6--------||-----------|-----5b7-7---5b7-7---5b7-7--------||-----------|----------------------------------||-----------|----------------------------------||-----------|----------------------------------|
|
|-----------|----------------------------------||-----------|----------------------------------||----5------|-----------3-------------3-3---3--||----5------|-----------3-------------3-3---3--||-3---------|----------------------------------||-----------|-3-3---------------3---------3----|
C Gm C Eb|-----------|---------------------------------|-----------|---------------||-----------|---------6-------6-------6-------|-----------|---------------||-----------|-----5b7-7---5b7-7---5b7-7-------|-----------|---------------||-----------|---------------------------------|-----------|---------------||-----------|---------------------------------|-----------|---------------||-----------|---------------------------------|-----------|---------------|
|
|-----------|---------------------------------|-----------|---------------||-----------|---------------------------------|-----------|---------------||----5------|-----------3-------------3-3---3-|----5------|-----8S6-8-8---||----5------|-----------3-------------3-3---3-|----5------|-----8S6-8-8---||-3---------|---------------------------------|-3---------|-6-6-----------||-----------|-3-3---------------3---------3---|-----------|---------------|
D|-15b17r(15)--------------|--------------------|||---------------10--------|--------------------|||------------------11-----|--------------------|||----------------------12-|-(12)---------------|||-------------------------|--------------------|||-------------------------|--------------------||
|
|-------------------------|--------------------|||-------------------------|--------------------|||---------7---------------|---7--7--7-(7)-7-7--|||---------7---------------|---7--7--7-(7)-7-7--|||---------5---------------|---5--5--5-(5)-5-5--|||-------------------------|--------------------||
1st Chorus Bb Eb Bb Eb Bb|---------------|-------------------||---------------|-------------------||---------------|-------------------||---------------|-------------------||---------------|-------------------||---------------|-------------------|
|
|---------------|-------------------||-3--x-x-4--x-x-|-3--x-4-x-x-x-3-3--||-3--x-x-3--x-x-|-3--x-3-x-x-x-3-3--||-3--x-x-5--x-x-|-3--x-5-x-x-x-3-3--||---------------|-------------------||---------------|-------------------|
Bb Eb Bb F Bb Eb Bb Eb Bb|---------------|------------------|---------------|-------------------||---------------|------------------|---------------|-------------------||---------------|------------------|---------------|-------------------||---------------|------------------|---------------|-------------------||---------------|------------------|---------------|-------------------||---------------|------------------|---------------|-------------------|
|
|---------------|------------------|---------------|-------------------||-3--x-x-4--x-x-|-3--x-1-x-x-x-3-3-|-3--x-x-4--x-x-|-3--x-4-x-x-x-3-3--||-3--x-x-3--x-x-|-3--x-2-x-x-x-3-3-|-3--x-x-3--x-x-|-3--x-3-x-x-x-3-3--||-3--x-x-5--x-x-|-3--x-3-x-x-x-3-3-|-3--x-x-5--x-x-|-3--x-5-x-x-x-3-3--||---------------|------------------|---------------|-------------------||---------------|------------------|---------------|-------------------|
Eb Bb|-----------------------------|-----------------------------||-------11------------11------|-------11--------10---10-----||-13b15-15------13b15-15------|-13b15-15--12b14-14---14-----||-----------------------------|-----------------------------||-----------------------------|-----------------------------||-----------------------------|-----------------------------|
|
|-----------------------------|-----------------------------||--------3--x-x--------4--x-x-|--------3---------x-1--x-1---||--------3--x-x--------3--x-x-|--------3---------x-2--x-2---||--------3--x-x--------5--x-x-|--------3---------x-3--x-3---||-----------------------------|-----------------------------||-----------------------------|-----------------------------|
Gm|-----------------|-------------------||-----------------|-------------------||---3p2---2p0-----|-------------------||---------------5-|-(5)--3---3---3-5--||-----------------|--------5---5------||-3-----3-----3---|-------------------|
|
|-----------------|-------------------||-----------------|-------------------||---3p2---2p0-----|-------------------||---------------5-|-(5)--3---3---3-5--||-----------------|--------5---5------||-3-----3-----3---|-------------------|
C|-----------------|------------------|-----------------|-------------------||-----------------|------------------|-----------------|-------------------||---3p2---2p0---5-|-(5)--3-0-2-0---0-|---3p2---2p0-----|-------------------||-----------------|--------------3---|---------------5-|-(5)--3---3---3-5--||-----------------|------------------|-----------------|--------5---5------||-3-----3-----3---|------------------|-3-----3-----3---|-------------------|
|
|-----------------|------------------|-----------------|-------------------||-----------------|------------------|-----------------|-------------------||---3p2---2p0---5-|-(5)--3-0-2-0---0-|---3p2---2p0-----|-------------------||-----------------|--------------3---|---------------5-|-(5)--3---3---3-5--||-----------------|------------------|-----------------|--------5---5------||-3-----3-----3---|------------------|-3-----3-----3---|-------------------|
|-----------------|------------------||-----------------|------------------||---3p2---2p0---5-|-(5)--3-0-2-0---0-||-----------------|--------------3---||-----------------|------------------||-3-----3-----3---|------------------|
|
|-----------------|------------------||-----------------|------------------||---3p2---2p0---5-|-(5)--3-0-2-0---0-||-----------------|--------------3---||-----------------|------------------||-3-----3-----3---|------------------|
Gm Bb C|---------------------------|-------------------------||---------------3-----------|------------3------------||-------5b7-(5)---5b7-(5)---|-(5)----(5)---5p3--------||---------------------------|--------------------5----||---------------------------|-------------------------||---------------------------|-------------------------|
|
|-3-------------------------|-------------------------||-3--------------------3--3-|--3---------------5---5--||-3--------------------3--3-|--3---------------5---5--||-5--------------------3--3-|--3---------------5---5--||-5--------------------1--1-|--1---------------3---3--||-3-------------------------|-------------------------|
Eb F|-----------------------|-3-3-6p3-----------3----------------|||---------------6b8-(6)-|---------3-----------3--------------|||------3----(3)---------|-----------5b7-(5)-----5b7==(5)r5-3-|||-(5)-------------------|------------------------------------|||-----------------------|------------------------------------|||-----------------------|------------------------------------||
|
|-----------------------|------------------------------------|||--5--------------------|-8-------------10-------------------|||--5--------------------|-8-------------10-------------------|||--5--------------------|-8-------------10-------------------|||--3--------------------|-6--------------8-------------------|||-----------------------|------------------------------------||
3rd verse Gm F Gm|-----------------|-----------------|-----------------|------------------||-----------------|-----------------|-----------------|------------------||-----------------|-----------------|-----------------|------------------||-5---------------|-----------------|-----------------|------------------||-----------------|-----------------|-----------------|------------------||-----------------|-----------------|-----------------|------------------|
|
|-----------------|-----------------|-----------------|------------------||-----------------|-----------------|-----------------|------------------||-----------------|-----------------|-----3---3-3---3-|-----3---3-3---3--||-----5-------5---|-----3-------3---|-----3---3-3---3-|-----3---3-3---3--||-----5-------5---|-----3-------3---|-----------------|------------------||-3-3---3-3-3---3-|-1-1---1-1-1---1-|-3-3---3-----3---|-3-3---3-----3----|
F Gm|-----------------|-----------------|-13b15-(13)---13b15-(13)---13b15-(13)---13b15-(13)-------||-----------------|-----------------|---------------------------------------------------------||-----------------|-----------------|---------------------------------------------------------||-----------------|-----------------|---------------------------------------------------------||-----------------|-----------------|---------------------------------------------------------||-----------------|-----------------|---------------------------------------------------------|
|
|-----------------|-----------------|---------------------------------------------------------||-----------------|-----------------|---------------------------------------------------------||-----------------|-----------------|-------------------------3----------------------3--3---3-||-----5-------5---|-----3-------3---|-------------------------3----------------------3--3---3-||-----5-------5---|-----3-------3---|---------------------------------------------------------||-3-3---3-3-3---3-|-1-1---1-1-1---1-|---------3--3-------------------------3--------------3---|
|-13b15r(13)---10---------------------||-----------------11------11----------||--------------------12------12-------||-------------------------------------||-------------------------------------||-------------------------------------|
|
|-------------------------------------||-------------------------------------||------------------3----------3-3---3-||------------------3----------3-3---3-||-------------------------------------||--3---------3----------3---------3---|
C Gm|--------------|----------------------------------------||--------------|---13-13-13b15-13b15-13b15r(13)-11------||-(12)---------|-----------------------------------12---||--------------|----------------------------------------||--------------|----------------------------------------||--------------|----------------------------------------|
|
|--------------|----------------------------------------||--------------|----------------------------------------||-------5------|----------3-----------3------3--------3-||-------5------|----------3-----------3------3--------3-||---3----------|----------------------------------------||--------------|-3-----3--------3-------------------3---|
C Gm|--------------|----------13-----------13------------13--------||--------------|---13b15-(13)---13b15-(13)---13b15==(13)r13p11-||-(12)---------|-----------------------------------------------||--------------|-----------------------------------------------||--------------|-----------------------------------------------||--------------|-----------------------------------------------|
|
|--------------|-----------------------------------------------||--------------|-----------------------------------------------||-------5------|--------------3------------3----------3------3-||-------5------|--------------3------------3----------3------3-||---3----------|-----------------------------------------------||--------------|-3---------3------------3-----------------3----|
C Eb D|------------|---------------|-15b17r(15)--------------|--------------------||------------|---------------|---------------10--------|--------------------||-12---------|---------------|------------------11-----|--------------------||------------|---------------|----------------------12-|-(12)---------------||------------|---------------|-------------------------|--------------------||------------|---------------|-------------------------|--------------------|
|
|------------|---------------|-------------------------|--------------------||------------|---------------|-------------------------|--------------------||-----5------|-----8S6-8-8---|---------7---------------|---7--7--7-(7)-7-7--||-----5------|-----8S6-8-8---|---------7---------------|---7--7--7-(7)-7-7--||--3---------|-6-6-----------|---------5---------------|---5--5--5-(5)-5-5--||------------|---------------|-------------------------|--------------------|
2nd Chorus Bb Eb Bb Eb Bb Eb Bb F Bb|----------------|------------------|---------------|------------------||----------------|------------------|---------------|------------------||----------------|------------------|---------------|------------------||----------------|------------------|---------------|------------------||----------------|------------------|---------------|------------------||----------------|------------------|---------------|------------------|
|
|----------------|------------------|---------------|------------------||-3--x--x-4--x-x-|-3--x-4-x-x-x-3-3-|-3--x-x-4--x-x-|-3--x-1-x-x-x-3-3-||-3--x--x-3--x-x-|-3--x-3-x-x-x-3-3-|-3--x-x-3--x-x-|-3--x-2-x-x-x-3-3-||-3--x--x-5--x-x-|-3--x-5-x-x-x-3-3-|-3--x-x-5--x-x-|-3--x-3-x-x-x-3-3-||----------------|------------------|---------------|------------------||----------------|------------------|---------------|------------------|
Eb Bb Eb Bb Eb Bb F|---------------|------------------|---------------|--------------|||---------------|------------------|---------------|--------------|||---------------|------------------|---------------|--------------|||---------------|------------------|---------------|--------------|||---------------|------------------|---------------|--------------|||---------------|------------------|---------------|--------------||
|
|---------------|------------------|---------------|--------------|||-3--x-x-4--x-x-|-3--x-4-x-x-x-3-3-|-3--x-x-4--x-x-|-3--x-1-x-1---|||-3--x-x-3--x-x-|-3--x-3-x-x-x-3-3-|-3--x-x-3--x-x-|-3--x-2-x-2---|||-3--x-x-5--x-x-|-3--x-5-x-x-x-3-3-|-3--x-x-5--x-x-|-3--x-3-x-3---|||---------------|------------------|---------------|--------------|||---------------|------------------|---------------|--------------||
Gm C|-----------------|------------------|-----------------|-------------------||-----------------|------------------|-----------------|-------------------||---3p2---2p0-----|------------------|---3p2---2p0---5-|-(5)--3-0-2-0---0--||---------------5-|-(5)--3---3---3-5-|-----------------|--------------3----||-----------------|--------5---5-----|-----------------|-------------------||-3-----3-----3---|------------------|-3-----3-----3---|-------------------|
|
|-----------------|------------------|-----------------|-------------------||-----------------|------------------|-----------------|-------------------||---3p2---2p0-----|------------------|---3p2---2p0---5-|-(5)--3-0-2-0---0--||---------------5-|-(5)--3---3---3-5-|-----------------|--------------3----||-----------------|--------5---5-----|-----------------|-------------------||-3-----3-----3---|------------------|-3-----3-----3---|-------------------|
Gm C|-----------------|------------------|-----------------|-------------------||-----------------|------------------|-----------------|-------------------||---3p2---2p0-----|------------------|---3p2---2p0---5-|-(5)--3-0-2-0---0--||---------------5-|-(5)--3---3---3-5-|-----------------|--------------3----||-----------------|--------5---5-----|-----------------|-------------------||-3-----3-----3---|------------------|-3-----3-----3---|-------------------|
|
|-----------------|------------------|-----------------|-------------------||-----------------|------------------|-----------------|-------------------||---3p2---2p0-----|------------------|---3p2---2p0---5-|-(5)--3-0-2-0---0--||---------------5-|-(5)--3---3---3-5-|-----------------|--------------3----||-----------------|--------5---5-----|-----------------|-------------------||-3-----3-----3---|------------------|-3-----3-----3---|-------------------|
Gm Bb|-3-----------------|--------------------||-3-------------3-3-|--3-------------5-5-||-3-------------3-3-|--3-------------5-5-||-5-------------3-3-|--3-------------5-5-||-5-------------1-1-|--1-------------3-3-||-3-----------------|--------------------|
|
|-------------------|--------------------||-------------------|--------------------||---3p2---2p0-------|--------------------||---------------5---|-(5)--3---3---3-5---||-------------------|--------5---5-------||-3-----3-----3-----|--------------------|
C Eb F|-----------------|--------------------||-5---------------|--8-------10--------||-5---------------|--8-------10--------||-5---------------|--8-------10--------||-3---------------|--6--------8--------||-----------------|--------------------|
|
|-----------------|--------------------||-----------------|--------------------||---3p2---2p0---5-|-(5)--3-0--2-0---0--||-----------------|---------------3----||-----------------|--------------------||-3-----3-----3---|--------------------|
Gm Bb C D|-3-----------------|--------------------|-----------------|-------------|||-3-------------3-3-|--3-------------5-5-|-5---------------|-------------|||-3-------------3-3-|--3-------------5-5-|-5---------------|--5-----7----|||-5-------------3-3-|--3-------------5-5-|-5---------------|--5-----7----|||-5-------------1-1-|--1-------------3-3-|-3---------------|--3-----5----|||-3-----------------|--------------------|-----------------|-------------||
|
|-------------------|--------------------|-----------------|-------------|||-------------------|--------------------|-----------------|-------------|||---3p2---2p0-------|--------------------|---3p2---2p0---5-|-(5)----7----|||---------------5---|-(5)--3---3---3-5---|---------------5-|-(5)----7----|||-------------------|--------5---5-------|---------------3-|-(3)----5----|||-3-----3-----3-----|--------------------|-3-----3-----3---|-------------||
Guitar Solo Em|--------------------------|-------------------------------------||--------------------------|-------------------------------------||-14b16-(14)---------------|-14b16r(14)p12----12---12-(12)-------||--------------------------|---------------14--------------------||--------------------------|-------------------------------------||--------------------------|-------------------------------------|
|
|--------------------------|-------------------------------------||--------------------------|-------------------------------------||--------------------------|-------------------------------------||------------5p4---4p0---2-|-(2)------------0-----------0----0-2-||--------------------------|---------------------2---------2-----||---------0------0-----0---|-------------------------------------|
C D|------------------------------------12---------------------|---------------------------||------------12---15------------12--------------------------|---------------------------||-14b16-(14)---------14b16-(14)---------14b16==(14)r14---12-|-----14-------14-------14--||-----------------------------------------------------------|--------12-------12--------||-----------------------------------------------------------|-----------14-------14-----||-----------------------------------------------------------|---------------------------|
|
|-----------------------------------------------------------|---------------------------||-----------------------------------------------------------|---------------------------||-----------------------------------------------------------|---------------------------||---------------5p===========4-------------------4p==0----2-|-(2)-----0-----0-----------||-----------------------------------------------------------|------------2--------------||---------0------------------------0-------------------0----|------------------3--------|
Em|-15b17-(15)-------14-12-14-15-12---------|---------------------------------||---------------------------------15---12-|-(12)----------------------------||-----------------------------------------|------14-14-16b18-(16)-----------||-----------------------------------------|---------------------------------||-----------------------------------------|---------------------------------||-----------------------------------------|---------------------------------|
|
|-----------------------------------------|---------------------------------||-----------------------------------------|---------------------------------||-----------------------------------------|---------------------------------||------------5p4----4p====0----------2----|--(2)---------------0----0---0-2-||-----------------------------------------|-----------------------2---2-----||---------0------0--------------0---------|---------------------------------|
C D|------------------------|----------------------------|||------------------------|----------------------------|||---14-12----14----12----|-12-------------------------|||---------14----14----14-|-----14-12----12----12------|||------------------------|-----------14----------14---|||------------------------|-----------------15---------||
|
|------------------------|----------------------------|||------------------------|----------------------------|||------------------------|----------------------------|||----5p=4-----4p=0-----2-|-(2)-----0-----0------------|||------------------------|------------2---------------|||-0--------0--------0----|------------------3---------||
Gm|-----------------------------------------|--------------------------------||--------------15-------------------------|--------------------------------||-14b16-(14)------14b16-(14)-(14)12-15-14-|-----14-15-17b19==(17)r17-15----||-----------------------------------------|-17--------------------------17-||-----------------------------------------|--------------------------------||-----------------------------------------|--------------------------------|
|
|-----------------------------------------|--------------------------------||-----------------------------------------|--------------------------------||------------3p=2--------------2p=0-------|--------------------------------||---------------------------------------5-|-(5)-----3----------3------3--5-||-----------------------------------------|------------5-----------5-------||---------3---------------3----------3----|--------------------------------|
|----------------------------|-15------------------------------------||---------------18-(18)------|-----18-(18)-15-18---------------------||-15-17b19-(17)--------------|-------------------17b19-(17)\---------||----------------------------|---------------------------------------||----------------------------|---------------------------------------||----------------------------|---------------------------------------|
|
|----------------------------|---------------------------------------||----------------------------|---------------------------------------||-----3p=====2-------2p0-----|---------------------------------------||--------------------------5-|-(5)------3----------------3-----3-5---||----------------------------|-----------------5-------------5-------||--3-------------3-------3---|---------------------------------------|
|--------------------------------------|-------------------------------------------------||--------------------------------------|-------------------------------------18b20==(18)r||-17b19-(17)---17b19-17b19-17-17-15-17-|-17b19==(17)r17p15----15-------------------------||--------------------------------------|-------------------17----17-(17)-----------------||--------------------------------------|-------------------------------------------------||--------------------------------------|-------------------------------------------------|
|
|--------------------------------------|-------------------------------------------------||--------------------------------------|-------------------------------------------------||------------3p=2-----------2p=0-------|-------------------------------------------------||------------------------------------5-|---------(5)--------3---------3----3----------5--||--------------------------------------|--------------------------5------5---------------||---------3-----------3-----------3----|-------------------------------------------------|
Eb D|----------------------------------------------------|------------------------------------------|||-18-18-15----15-------------------------------------|-------------------------------15-16-18---|||----------17----17b19==(17)r17-15----15-14----14-15-|----------------------14-15-17------------|||----------------------------------17-------17-------|-17-15----17-15----17---------------------|||----------------------------------------------------|-------17-------17------------------------|||----------------------------------------------------|------------------------------------------||
|
|----------------------------------------------------|------------------------------------------|||----------------------------------------------------|------------------------------------------|||-----3p====2--------------------2p====0-------------|--8-----------------------7---------------|||----------------------------------------------------|--8-----------------------7---------------|||----------------------------------------------------|--6-----------------------5---------------|||--3----------------------3---------------3----------|------------------------------------------||
Out-Chorus Bb Eb|-13-10-13-10----10---------------------||-------------13----11------------------||----------------------10---------------||-------------------------12------------||----------------------------13---------||-------------------------------10\-6---|
|
|---------------------------------------||--3--------x-----x-----4-----------x-x-||--3--------x-----x-----3-----------x-x-||--3--------x-----x-----5-----------x-x-||---------------------------------------||---------------------------------------|
Bb Eb Bb Eb Bb F Bb|--------------------|---------------|-------------------||--------------------|---------------|-------------------||--------------------|---------------|-------------------||--------------------|---------------|-------------------||--------------------|---------------|-------------------||-(6)----------------|---------------|-------------------|
|
|--------------------|---------------|-------------------||--3---x-4-x-x-x-3-3-|-3--x-x-4--x-x-|-3--x-1-x-x-x-3-3--||--3---x-3-x-x-x-3-3-|-3--x-x-3--x-x-|-3--x-2-x-x-x-3-3--||--3---x-5-x-x-x-3-3-|-3--x-x-5--x-x-|-3--x-3-x-x-x-3-3--||--------------------|---------------|-------------------||--------------------|---------------|-------------------|
Bb Eb Bb Eb Bb Eb Bb F|---------------|------------------|---------------|--------------|||---------------|------------------|---------------|--------------|||---------------|------------------|---------------|--------------|||---------------|------------------|---------------|--------------|||---------------|------------------|---------------|--------------|||---------------|------------------|---------------|--------------||
|
|---------------|------------------|---------------|--------------|||-3--x-x-4--x-x-|-3--x-4-x-x-x-3-3-|-3--x-x-4--x-x-|-3--x-1-x-1---|||-3--x-x-3--x-x-|-3--x-3-x-x-x-3-3-|-3--x-x-3--x-x-|-3--x-2-x-2---|||-3--x-x-5--x-x-|-3--x-5-x-x-x-3-3-|-3--x-x-5--x-x-|-3--x-3-x-3---|||---------------|------------------|---------------|--------------|||---------------|------------------|---------------|--------------||
Gm C|-----------------|------------------|-----------------|-------------------||-----------------|------------------|-----------------|-------------------||---3p2---2p0-----|------------------|---3p2---2p0---5-|-(5)--3-0-2-0---0--||---------------5-|-(5)--3---3---3-5-|-----------------|--------------3----||-----------------|--------5---5-----|-----------------|-------------------||-3-----3-----3---|------------------|-3-----3-----3---|-------------------|
|
|-----------------|------------------|-----------------|-------------------||-----------------|------------------|-----------------|-------------------||---3p2---2p0-----|------------------|---3p2---2p0---5-|-(5)--3-0-2-0---0--||---------------5-|-(5)--3---3---3-5-|-----------------|--------------3----||-----------------|--------5---5-----|-----------------|-------------------||-3-----3-----3---|------------------|-3-----3-----3---|-------------------|
Gm C|-----------------|------------------|-----------------|-------------------||-----------------|------------------|-----------------|-------------------||---3p2---2p0-----|------------------|---3p2---2p0---5-|-(5)--3-0-2-0---0--||---------------5-|-(5)--3---3---3-5-|-----------------|--------------3----||-----------------|--------5---5-----|-----------------|-------------------||-3-----3-----3---|------------------|-3-----3-----3---|-------------------|
|
|-----------------|------------------|-----------------|-------------------||-----------------|------------------|-----------------|-------------------||---3p2---2p0-----|------------------|---3p2---2p0---5-|-(5)--3-0-2-0---0--||---------------5-|-(5)--3---3---3-5-|-----------------|--------------3----||-----------------|--------5---5-----|-----------------|-------------------||-3-----3-----3---|------------------|-3-----3-----3---|-------------------|
Outro Gm C||------------------|------------------|-----------------|------------------|||o-----------------|------------------|-----------------|------------------|||----3p2---2p0-----|------------------|---3p2---2p0---5-|-(5)--3-0-2-0---0-|||----------------5-|-(5)--3---3---3-5-|-----------------|--------------3---|||o-----------------|--------5---5-----|-----------------|------------------|||--3-----3-----3---|------------------|-3-----3-----3---|------------------|
|
||------------------|------------------|-----------------|------------------|||o-----------------|------------------|-----------------|------------------|||----3p2---2p0-----|------------------|---3p2---2p0---5-|-(5)--3-0-2-0---0-|||----------------5-|-(5)--3---3---3-5-|-----------------|--------------3---|||o-----------------|--------5---5-----|-----------------|------------------|||--3-----3-----3---|------------------|-3-----3-----3---|------------------|
Gm C|-----------------|------------------|-----------------|--------------------|||-----------------|------------------|-----------------|-------------------o|||---3p2---2p0-----|------------------|---3p2---2p0---5-|-(5)--3-0-2-0---0---|||---------------5-|-(5)--3---3---3-5-|-----------------|--------------3-----|||-----------------|--------5---5-----|-----------------|-------------------o|||-3-----3-----3---|------------------|-3-----3-----3---|--------------------||
|
|-----------------|------------------|-----------------|--------------------|||-----------------|------------------|-----------------|-------------------o|||---3p2---2p0-----|------------------|---3p2---2p0---5-|-(5)--3-0-2-0---0---|||---------------5-|-(5)--3---3---3-5-|-----------------|--------------3-----|||-----------------|--------5---5-----|-----------------|-------------------o|||-3-----3-----3---|------------------|-3-----3-----3---|--------------------||
Tablature Legend ---------------- h - hammer-on p - pull-off b - bend pb - pre-bend r - bend release (if no number after the r, then release immediately) /\ - slide into or out of (from/to "nowhere") s - legato slide S - shift slide - natural harmonic [n] - artificial harmonic n(n) - tapped harmonic ~ - vibrato tr - trill T - tap TP - trem. picking PM - palm muting \n/ - tremolo bar dip; n = amount to dip \n - tremolo bar down n/ - tremolo bar up /n\ - tremolo bar inverted dip = - hold bend; also acts as connecting device for hammers/pulls <> - volume swell (louder/softer) x - on rhythm slash represents muted slash o - on rhythm slash represents single note slash Misc Legend ----------- | - bar || - double bar ||o - repeat start o|| - repeat end *| - double bar (ending) : - bar (freetime) $ - Segno & - Coda
Tap to rate this tab
 
# A B C D E F G H I J K L M N O P Q R S T U V W X Y Z