Rammstein - Links 2-3-4 tab

Rammstein- Links234
Track 2 of Mutter
Tabbed by Juan Moreno
jamgant@hotmail.com for any comments or suggestions.

Standard Tuning (E)

|----------------------------------------------------||----------------------------------------------------||----------------------------------------------------||------9-9----------9-9----------9-9-------5/7--8----| x3|------7-7----------7-7----------7-7-------5/7--8----||0--0--0-0----0--0--0-0----0--0--0-0--0-0--3/5--6----|
|----------------------------------------------------||----------------------------------------------------||----------------------------------------------------||------9-9----------9-9----------9-9------8-8-8------| |------7-7----------7-7----------7-7------8-8-8------||0--0--0-0----0--0--0-0----0--0--0-0--0---6-6-6------|
|----------------------------------------------------||----------------------------------------------------||----------------------------------------------------||------9-9----------9-9----------9-9-------5/7--8----| x2|------7-7----------7-7----------7-7-------5/7--8----||0--0--0-0----0--0--0-0----0--0--0-0--0-0--3/5--6----|
VERSE|----------------------------------------------------||----------------------------------------------------||----------------------------------------------------||----------------------------------------------------| x6|5---5h7p5---5---5h7p5---5---5h7p5---5---5h7p5-------||----------------------------------------------------| "Kann man..."
|----------------------------------------------------||----------------------------------------------------||----------------------------------------------------||------9-9----------9-9----------9-9-----5/7--8------| x4|------7-7----------7-7----------7-7-----5/7--8------||0--0--0-0----0--0--0-0----0--0--0-0--0--3/5--6------|
|----------------------------------------------------||----------------------------------------------------||----------------------------------------------------||----------------------------------------------------| x6|5---5h7p5---5---5h7p5---5---5h7p5---5---5h7p5-------||----------------------------------------------------| "Kann man..."
|----------------------------------------------------||----------------------------------------------------||----------------------------------------------------||------9-9----------9-9----------9-9-------5/7--8----| x4|------7-7----------7-7----------7-7-------5/7--8----||0--0--0-0----0--0--0-0----0--0--0-0--0-0--3/5--6----|
|----------------------------------------------------||----------------------------------------------------||----------------------------------------------------||2----------5----------7--------7-7-7-7-8------------| x2|2----------5----------7--------7-7-7-7-8------------||0----------3----------5--------5-5-5-5-6------------|
|----------------------------------------------------||----------------------------------------------------||----------------------------------------------------||------2----------2----------2-------5/7--8----------| x9|------2----------2----------2-------5/7--8----------||0--0--0----0--0--0----0--0--0----0--3/5--6----------|
Riff A |----------------------------------------------------||----------------------------------------------------||----------------------------------------------------||------9-9----------9-9----------9-9-------5/7--8----| x8|------7-7----------7-7----------7-7-------5/7--8----||0--0--0-0----0--0--0-0----0--0--0-0--0-0--3/5--6----|
|----------7-------------------7---------------------||7--8--10-----10--8--7--8--10-----10--8--7--8--------| while the last 4|----------------------------------------------9-----| times of Riff A |----------------------------------------------------| |----------------------------------------------------| --| |----------------------------------------------------| |
|- x2|----------7-------------------7---------------------| ||7--8--10-----10--8--7--8--10-----10--8--7--8--8/12--| --||----------------------------------------------------||----------------------------------------------------||----------------------------------------------------||----------------------------------------------------|
|----------------------------------------------------||----------------------------------------------------||----------------------------------------------------||2----------5----------7--------7-7-7-7-8------------| x4|2----------5----------7--------7-7-7-7-8------------||0----------3----------5--------5-5-5-5-6------------|
It?s done. Have fun!!!
Tap to rate this tab
 
# A B C D E F G H I J K L M N O P Q R S T U V W X Y Z