Rammstein - Links 2 3 4 tab

Artist:      Rammstein
Song:        Links 2 3 4
Album:       Mutter
Tuning:      Standard Tuning
Tabbed by:   scratchNARD
Played with: Distortion

Ok... this is pretty accurate and you have no ideahow long i had to watch this song on Volkerball to tabthis right but it sounds great.Main Riff: 3x|--------------------------------------------||--------------------------------------------||--------------------------------------------||-------2---------2---------2---xx---5\7-8---||-------2---------2---------2---xx---5\7-8---||---0-0-0---0-0-0-0---0-0-0-0---xx---3\5-6---|
|--------------------------------------------||--------------------------------------------||--------------------------------------------||-------2---------2---------2---xx---88-88---||-------2---------2---------2---xx---88-88---||---0-0-0---0-0-0-0---0-0-0-0---xx---66-66---|
|---------------------------------------|||---------------------------------------|||---------------------------------------|||-------2---------2---------2---5\7-8---|||-------2---------2---------2---5\7-8---|||---0-0-0---0-0-0-0---0-0-0-0---3\5-6---||
|---------------------------------------||---------------------------------------||---------------------------------------||-------2---------2---------2---5\7-8---||-------2---------2---------2---5\7-8---||---0-0-0---0-0-0-0---0-0-0-0---3\5-6---|
3x|---------------------------------------|||---------------------------------------|||---------------------------------------|||-------2---------2---------2---5\7-8---|||-------2---------2---------2---5\7-8---|||---0-0-0---0-0-0-0---0-0-0-0---3\5-6---||
3x|---------------------------------------|||---------------------------------------|||---------------------------------------|||-------2---------2---------2---5\7-8---|||-------2---------2---------2---5\7-8---|||---0-0-0---0-0-0-0---0-0-0-0---3\5-6---||
3x|---------------------------------------|||---------------------------------------|||---------------------------------------|||-------2---------2---------2---5\7-8---|||-------2---------2---------2---5\7-8---|||---0-0-0---0-0-0-0---0-0-0-0---3\5-6---||
Chorus: 2x|--------------|--------------|----------------------||--------------|--------------|----------------------||--------------|--------------|----------------------||---2----------|---5----------|---7----------888-8---||---2----------|---5----------|---7----------888-8---||---0----------|---3----------|---5----------666-6---| ...
Ok there is a part that is played clean you know what im talking about just repeat the Main Riff without any Distortion im just not positive how many times you play it just follow the above Main Riff and you can figure it out on your own it's pretty easy.
Chorus: 2x|--------------|--------------|----------------------||--------------|--------------|----------------------||--------------|--------------|----------------------||---2----------|---5----------|---7----------888-8---||---2----------|---5----------|---7----------888-8---||---0----------|---3----------|---5----------666-6---|
... 3x |---------------------------------------||---------------------------------------||---------------------------------------||-------2---------2---------2---5\7-8---||-------2---------2---------2---5\7-8---||---0-0-0---0-0-0-0---0-0-0-0---3\5-6---|
now for the Solo i know you have seen the tabbs with all of the pull-offs but this Solo has no pull-offs in it if your like me and you like playing everything the way the play it this is the way is watched Richard lay it.
Solo:|----------7-------------7-------------|---7-8-10---10-8-7-8-10--10-8-7-8-----|----------------------------------9~--|--------------------------------------|--------------------------------------|--------------------------------------
|----------7-------------7----------------|||---7-8-10---10-8-7-8-10---10-8-7-8\12~---|||-----------------------------------------|||-----------------------------------------|||-----------------------------------------|||-----------------------------------------||
|----------7-------------7-------------|---7-8-10---10-8-7-8-10--10-8-7-8-----|----------------------------------9~--|--------------------------------------|--------------------------------------|--------------------------------------
|----------7-------------7-------------------|||---7-8-10---10-8-7-8-10---10-8-7-8\12~~~~---|||--------------------------------------------|||--------------------------------------------|||--------------------------------------------|||--------------------------------------------||
Chorus:|--------------|--------------|----------------------|||--------------|--------------|----------------------|||--------------|--------------|----------------------|||---2----------|---5----------|---7----------888-8---|||---2----------|---5----------|---7----------888-8---|||---0----------|---3----------|---5----------666-6---||
...|--------------|--------------|----------------------|||--------------|--------------|----------------------|||--------------|--------------|----------------------|||---2----------|---5----------|---7----------888-8---|||---2----------|---5----------|---7----------888-8---|||---0----------|---3----------|---5----------666-6---|| ...well...thats it if you have any questions just commentthis tab because i thing my email is somehow screwed up
-scratchNARD
Tap to rate this tab
 
# A B C D E F G H I J K L M N O P Q R S T U V W X Y Z