Ramones - Wart Hog tab

Alright, this is a pretty simple song.Its repetitive and easy so it shouldn't be a problem. (2x)|-------------------------------------------------||-------------------------------------------------||-------------------------------------------------||------------------17-15--------------------17-15-||15-15-15-15-15-15-15-13--15-15-15-15-15-15-15-13-||13-13-13-13-13-13--------13-13-13-13-13-13-------|
|----------------------------------------||----------------------------------------||10~-------10~-------10~-------10~-------||10~-7~-9~-10~-7~-9~-10~-7~-9~-10~-7~-9~-||-8~-7~-9~--8~-7~-9~--8~-7~-9~--8~-7~-9~-||----5~-7~-----5~-7~-----5~-7~-----5~-7~-|
|-----------------||-----------------||---6~-8~----6~-8~||8~-6~-8~-8~-6~-8~||8~-4~-6~-8~-4~-6~||6~-------6~------|
|----------------------------------------||----------------------------------------||10~-------10~-------10~-------10~-------||10~-7~-9~-10~-7~-9~-10~-7~-9~-10~-7~-9~-||-8~-7~-9~--8~-7~-9~--8~-7~-9~--8~-7~-9~-||----5~-7~-----5~-7~-----5~-7~-----5~-7~-|
(4x)|------------------------||------------------------||------------------------||------------------17-15-||15-15-15-15-15-15-15-13-||13-13-13-13-13-13-------|
|---------------------------------------||---------------------------------------||10~-------10~-------10~-------10~------||10~-7~-9~-10~-7~-9~-10~-7~-9~-10~-7~-9~||-8~-7~-9~--8~-7~-9~--8~-7~-9~--8~-7~-9~||----5~-7~-----5~-7~-----5~-7~-----5~-7~|
(2x)|------------------------------------||------------------------------------||8-8---------------8-8---------------||8-8-999-6-6666666-8-8-999-6-6666666-||6-6-999-6-6666666-6-6-999-6-6666666-||----777-4-4444444-----777-4-4444444-|
(4x)|----------||----------||10~-------||10~-7~-9~-||-8~-7~-9~-||----5~-7~-|
(4x)|------------------------||------------------------||------------------------||------------------17-15-||15-15-15-15-15-15-15-13-||13-13-13-13-13-13-------|
(2x) (2x) |---------| |-----------||---------| |-----------||---6~-8~-| |----11~-13-||8~-6~-8~-| |13~-11~-13-||8~-4~-6~-| |13~--9~-11-||6~-------| |11~--------|
(4x)|------------------------||------------------------||------------------------||------------------17-15-||15-15-15-15-15-15-15-13-||13-13-13-13-13-13-------|
(2x) (2x)|--------| |-----------||--------| |-----------||---6--8-| |----11~-13-||8~-6~-8-| |13~-11~-13-||8~-4~-6-| |13~--9~-11-||6~------| |11---------|
(4x)|------------------------||------------------------||------------------------||------------------17-15-||15-15-15-15-15-15-15-13-||13-13-13-13-13-13-------|
So this tab actually took me awhile to write so enjoy it.
Tap to rate this tab
 
# A B C D E F G H I J K L M N O P Q R S T U V W X Y Z