Ramones - I Wanna Be Sedated tab

I Wanna be Sedated                                

This is an awesome song. its pretty easy. 
                                                                        



                                                         
E||--------------------------|--------------------------|B||--------------------------|--------------------------|G||--8/-9--9-----9-----9-----|--9-----9-----9-----9-----|D||--8/-9--9-----9-----9-----|--9-----9-----9-----9-----|A||--6/-7--7-----7-----7-----|--7-----7-----7-----7-----|E||-----------0-----0-----0--|-----0-----0-----0-----0--|
--------------------------|--------------------------|--------------------------|--------------------------|--8/-9--9-----9-----9-----|--9-----9-----9-----9-----|--8/-9--9-----9-----9-----|--9-----9-----9-----9-----|--6/-7--7-----7-----7-----|--7-----7-----7-----7-----|-----------0-----0-----0--|-----0-----0-----0-----0--|
--------------------------|--------------------------|-------------------------|--------------------------|--------------------------|-------------------------|--9-----9-----9-----9-----|--9-----9-----9--9--9-----|-------------------------|--9-----9-----9-----9-----|--9-----9-----9--9--9--7--|--7----7--7--7--7--7--7--|--7-----7-----7-----7-----|--7-----7-----7--7--7--7--|--7----7--7--7--7--7--7--|-----0-----0-----0-----0--|-----0-----0-----0--0--5--|--5----5--5--5--5--5--5--|
--------------------------|--------------------------|--------------------------|--------------------------|--9-----9-----9-----9-----|--9-----9-----9-----9-----|--9-----9-----9-----9-----|--9-----9-----9-----9-----|--7-----7-----7-----7-----|--7-----7-----7-----7-----|-----0-----0-----0-----0--|-----0-----0-----0-----0--|
--------------------------|-------------------------|-------------------------|--------------------------|-------------------------|-------------------------|--9-----9-----9-----9-----|-------------------------|--9----9--9--9--9--9--9--|--9-----9-----9-----9--7--|--7----7--7--7--7--7--7--|--9----9--9--9--9--9--9--|--7-----7-----7-----7--7--|--7----7--7--7--7--7--7--|--7----7--7--7--7--7--9--|-----0-----0-----0-----5--|--5----5--5--5--5--5--5--|----------------------7--|
-------------------------|-------------------------|-------------------------|-------------------------|-------------------------|-------------------------|-------------------------|--9----9--9--9--9--9--9--|-------------------------|--9----9--9--9--9--9--9--|--9----9--9--9--9--9--9--|--9----9--9--9--9--9--9--|--9----9--9--9--9--9--9--|--7----7--7--7--7--7--7--|--9----9--9--9--9--9--9--|--7----7--7--7--7--7--7--|--0----------------------|--7----7--7--7--7--7--7--|
-------------------------|-------------------------|-------------------------|-------------------------|-------------------------|-------------------------|--9----9--9--9--9--9--9--|-------------------------|--9----9--9--9--9--9--9--|--9----9--9--9--9--9--9--|--9----9--9--9--9--9--9--|--9----9--9--9--9--9--9--|--7----7--7--7--7--7--7--|--9----9--9--9--9--9--9--|--7----7--7--7--7--7--7--|--0----------------------|--7----7--7--7--7--7--7--|--0----------------------|
-------------------------|-------------------------|--------------------------|-------------------------|-------------------------|--------------------------|-------------------------|-------------------------|--9-----9-----9-----9-----|--7----7--7--7--7--7/-9--|--9----9--9--9--9--9-----|--9-----9-----9-----9-----|--7----7--7--7--7--7/-9--|--9----9--9--9--9--9-----|--7-----7-----7-----7-----|--5----5--5--5--5--5/-7--|--7----7--7--7--7--7--0--|-----0-----0-----0-----0--|
--------------------------|--------------------------|--------------------------|--------------------------|--9-----9-----9-----9-----|--9-----9-----9-----9-----|--9-----9-----9-----9-----|--9-----9-----9-----9-----|--7-----7-----7-----7-----|--7-----7-----7-----7-----|-----0-----0-----0-----0--|-----0-----0-----0-----0--|
--------------------------|-------------------------|--------------------------|--------------------------|-------------------------|--------------------------|--9-----9-----9--9--9-----|-------------------------|--9-----9-----9-----9-----|--9-----9-----9--9--9--7--|--7----7--7--7--7--7--7--|--9-----9-----9-----9-----|--7-----7-----7--7--7--7--|--7----7--7--7--7--7--7--|--7-----7-----7-----7-----|-----0-----0-----0--0--5--|--5----5--5--5--5--5--5--|-----0-----0-----0-----0--|
--------------------------|--------------------------|-------------------------|--------------------------|--------------------------|-------------------------|--9-----9-----9-----9-----|--9-----9-----9-----9-----|-------------------------|--9-----9-----9-----9-----|--9-----9-----9-----9--7--|--7----7--7--7--7--7--7--|--7-----7-----7-----7-----|--7-----7-----7-----7--7--|--7----7--7--7--7--7--7--|-----0-----0-----0-----0--|-----0-----0-----0-----5--|--5----5--5--5--5--5--5--|
-------------------------|-------------------------|-------------------------|-------------------------|-------------------------|-------------------------|--9----9--9--9--9--9-----|-------------------------|--9----9--9--9--9--9--9--|--9----9--9--9--9--9--9--|--9----9--9--9--9--9--9--|--9----9--9--9--9--9--9--|--7----7--7--7--7--7--9--|--9----9--9--9--9--9--9--|--7----7--7--7--7--7--7--|----------------------7--|--7----7--7--7--7--7--7--|--0----------------------|
-------------------------|-------------------------|-------------------------|-------------------------|-------------------------|-------------------------|-------------------------|--9----9--9--9--9--9--9--|-------------------------|--9----9--9--9--9--9--9--|--9----9--9--9--9--9--9--|--9----9--9--9--9--9--9--|--9----9--9--9--9--9--9--|--7----7--7--7--7--7--7--|--9----9--9--9--9--9--9--|--7----7--7--7--7--7--7--|--0----------------------|--7----7--7--7--7--7--7--|
-------------------------|-------------------------|--------------------------|-------------------------|-------------------------|--------------------------|--9----9--9--9--9--9--9--|-------------------------|--------------------------|--9----9--9--9--9--9--9--|--7----7--7--7--7--7/-9--|--9--x--9--9--9--9--9-----|--7----7--7--7--7--7--7--|--7----7--7--7--7--7/-9--|--9--x--9--9--9--9--9-----|--0----------------------|--5----5--5--5--5--5/-7--|--7--x--7--7--7--7--7--7--|
--------------------------|--------------------------|--------------------------|--------------------------|--9--x--9--x--9--x--9-----|--------------------------|--9--x--9--x--9--x--9--7--|--7--7--7--x--7--x--7/-9--|--7--x--7--x--7--x--7--7--|--7--7--7--x--7--x--7/-9--|-----------------------5--|--5--5--5--x--5--x--5/-7--|
--------------------------|---------------------------|--------------------------|---------------------------|--------------------------|---------------------------|--7--x--7--x--7--x--7--9--|--9--x--9--x--9--9--9--11--|--7--x--7--x--7--x--7--9--|--9--x--9--x--9--9--9--11--|--5--x--5--x--5--x--5--7--|--7--x--7--x--7--7--7--9---|
--------------------------|--------------------------|--------------------------|--------------------------|--9--x--9--x--9--x--9-----|--------------------------|--9--x--9--x--9--x--9--7--|--7--7--7--x--7--x--7/-9--|--7--x--7--x--7--x--7--7--|--7--7--7--x--7--x--7/-9--|-----------------------5--|--5--5--5--x--5--x--5/-7--|
--------------------------|--------------------------|--------------------------|--------------------------|--------------------------|--9--x--9--x--9--x--9--8--|--7--x--7--x--7--x--7--9--|--9--x--9--x--9--x--9--8--|--7--x--7--x--7--x--7--9--|--7--x--7--x--7--x--7--6--|--5--x--5--x--5--x--5--7--|--------------------------|
--------------------------|--------------------------|--------------------------|--------------------------|--8/-9--9--9--9--9--9--9--|--9--9--9--9--9--9--9--9--|--8/-9--9--9--9--9--9--9--|--9--9--9--9--9--9--9--9--|--6/-7--7--7--7--7--7--7--|--7--7--7--7--7--7--7--7--|--------0--0--0-----------|--0-----0-----0--0--0--0--|
|-------------------------------|-------------------------------||-------------------------------|-------------------------------||*--11--x--11--x--11--x--11--x--|--11--x--11--x--11--11--11--x--||*--11--x--11--x--11--x--11--x--|--11--x--11--x--11--11--11--x--||---9---x--9---x--9---x--9---x--|--9---x--9---x--9---9---9---x--||-------------------------------|-------------------------------|
-------------------------|-------------------------------|-------------------------|-------------------------------|-------------------------|--11--11--11--x--11--x--11--x--|--9----9--9--9--9--9-----|--11--11--11--x--11--x--11--x--|--9----9--9--9--9--9-----|--9---9---9---x--9---x--9---x--|--7----7--7--7--7--7--0--|-------------------------------|
------------------------------|-------------------------------|------------------------------|-------------------------------|--11--x--11--x--11--x--11--x--|--11--x--11--x--11--11--11--x--|--11--x--11--x--11--x--11--x--|--11--x--11--x--11--11--11--x--|--9---x--9---x--9---x--9---x--|--9---x--9---x--9---9---9---x--|------------------------------|-------------------------------|
-------------------------|--------------------------------|-------------------------|--------------------------------|-------------------------|--11----11--11--11--11--11--11--|--9----9--9--9--9--9-----|--11----11--11--11--11--11--11--|--9----9--9--9--9--9-----|--9-----9---9---9---9---9---9---|--7----7--7--7--7--7--0--|--------------------------------|
--------------------------------|--------------------------------|--------------------------------|--------------------------------|--------------------------------|--11----11--11--11--11--11--11--|--11----11--11--11--11--11--11--|--11----11--11--11--11--11--11--|--11----11--11--11--11--11--11--|--9-----9---9---9---9---9---9---|--9-----9---9---9---9---9---9---|--------------------------------|
--------------------------------|--------------------------------|--------------------------------|--------------------------------|--------------------------------|--11----11--11--11--11--11--11--|--11----11--11--11--11--11--11--|--11----11--11--11--11--11--11--|--11----11--11--11--11--11--11--|--9-----9---9---9---9---9---9---|--9-----9---9---9---9---9---9---|--------------------------------|
--------------------------------|--------------------------------|--------------------------------|--------------------------------|--------------------------------|--11----11--11--11--11--11--11--|--11----11--11--11--11--11--11--|--11----11--11--11--11--11--11--|--11----11--11--11--11--11--11--|--9-----9---9---9---9---9---9---|--9-----9---9---9---9---9---9---|--------------------------------|
---------------------------|--------------------------------|---------------------------|--------------------------------|---------------------------|--------------------------------|--9--x--9--x--9--9--9/-11--|--11----11--11--11--11--11--11--|--9--x--9--x--9--9--9/-11--|--11----11--11--11--11--11--11--|--7--x--7--x--7--7--7/-9---|--9-----9---9---9---9---9---9---|
--------------------------------|----------------------------------||--------------------------------|----------------------------------||--11--x--11--11--11--x--11--11--|--11--x--11--11--11--11--11--11--*||--11--x--11--11--11--x--11--11--|--11--x--11--11--11--11--11--11--*||--9---x--9---9---9---x--9---9---|--9---x--9---9---9---9---9---9----||--------------------------------|----------------------------------||
--------------------------------||-------------------------------|--------------------------------||-------------------------------|--------------------------------||*--11--x--11--x--11--x--11--x--|--11----11--11--11--11--11--11--||*--11--x--11--x--11--x--11--x--|--11----11--11--11--11--11--11--||---9---x--9---x--9---x--9---x--|--9-----9---9---9---9---9---9---||-------------------------------|
--------------------------|------------------------------|--------------------------|------------------------------|--9--x--9--x--9--x--9--x--|------------------------------|--9--x--9--x--9--x--9--x--|--11--x--11--x--11--x--11--x--|--7--x--7--x--7--x--7--x--|--11--x--11--x--11--x--11--x--|--------------------------|--9---x--9---x--9---x--9---x--|
-------------------------------||------------------------------|-------------------------------||------------------------------|--11--x--11--x--11--x--11--x--*||--11--x--11--x--11--x--11--x--|--11--x--11--x--11--x--11--x--*||--11--x--11--x--11--x--11--x--|--9---x--9---x--9---x--9---x---||--9---x--9---x--9---x--9---x--|-------------------------------||------------------------------|
|-------------------------------|--------------------------||-------------------------------|--------------------------||*--11--x--11--x--11--x--11--x--|--9--x--9--x--9--x--9--x--||*--11--x--11--x--11--x--11--x--|--9--x--9--x--9--x--9--x--||---9---x--9---x--9---x--9---x--|--7--x--7--x--7--x--7--x--||-------------------------------|--------------------------|
------------------------------|-------------------------------||------------------------------|-------------------------------||------------------------------|--11--x--11--x--11--x--11--x--*||--11--x--11--x--11--x--11--x--|--11--x--11--x--11--x--11--x--*||--11--x--11--x--11--x--11--x--|--9---x--9---x--9---x--9---x---||--9---x--9---x--9---x--9---x--|-------------------------------||
--------------------||--------------------||--11----------------||--11----------------||--9-----------------||--9-----------------||
Thats it its thanks
Tap to rate this tab
 
# A B C D E F G H I J K L M N O P Q R S T U V W X Y Z