Randy Newman - Youve Got A Friend In Me tab version 3

Artist: Randy Newman
Song: You've got a Friend in me

Tuning: Standard



Intro:

|--3--| |-------------------0-------|------------------------|----------------------||----------1--3--4-------1--|----------4-----3----1--|----------------------||-------0-----------1-------|-----2------------------|-----0----------------||----2-------------------2--|-----2----4-----3----2--|-----2----4-----3-----||-3-------------------------|------------------------|----------6-----5-----||---------------------------|------------------------|----------------------|
| | | ||---------------------------|------------------------|----------------------||-------1--------------3----|--------1---------------|-------1-----------0--||-------0--------------1----|--------2----------1----|-------0-----------0--||---------------------------|------------------------|----------------------||-3-------------2-----------|--0---------------------|----------------------||---------------------------|-------------4----------|--3----------3--------|
|--0-------------------|----------------------||-------1----4---------|--3---------4---------||-------0---------4----|-------3---------4----||-----------------4----|-------3---------4----||----------------------|----------------------||----------------------|----------------------|
| | ||----------------------|----------------------||----------------------|----------------------||----------------------|----------------------||--2---------1---------|--0---------1---------||--3---------2---------|--1---------2---------||----------------------|----------------------|
Verse:
-------0--------------|-------0---------0----|----------------------|-------1---------4----|-------1---------1----|-----------------4----|-------0---------4----|-------0---------0----|-------2---------5----|-----------------3----|----------------------|-------3---------4----|--3-------------------|--3-------------------|-------3--------------|------------3---------|------------3---------|--1---------2---------|
----------------------|----------------------|----------------------|-------5---------5----|-----------------1----|-------3---------1----|-------5---------5----|-------2---------0----|-------1---------2----|-------5---------5----|-------3--------------|-------2---------2----|--3-------------------|-------3---------3----|------------0---------|------------3---------|--1---------0---------|--0-------------------|
----------------------|----------------------|----------------------|-----------------1----|-------3---------1----|-----------------1----|-------2---------0----|-------1---------2----|-------2---------0----|-------3--------------|-------2---------2----|-------3--------------|-------3---------3----|------------0---------|-------3---------3----|--1---------0---------|--0-------------------|--1---------0---------|
----------0-----------|----------------------|-------0---------0----|--4--3----1-----------|-------3---------3----|-------1---------2----|--2--1----2-----------|-------5---------4----|-------0---------0----|--3--2----2-----------|-------4---------3----|-----------------2----|----------0-----------|--0----3---------5----|--3---------0---------|--1--0----------------|------------3---------|----------------------|
----------------------|-------3---------3----|-------5---------4----|-------4---------3----|--0----3---------5----|------------3---------|
(Repeat Intro)
|-------0--------------|-------0---------0----||-------1---------4----|-------1---------0----||-------0---------4----|-------0---------0----||-----------------3----|----------------------||--3-------------------|--3-------------------||------------3---------|------------3---------|
----------------------|----------------------|----------------------|-----------------4----|-------5---------5----|-----------------1----|-------2---------5----|-------5---------5----|-------2---------0----|-------3---------4----|-------5---------5----|-------3--------------|-------3--------------|--3-------------------|-------3---------3----|--1---------2---------|------------3---------|--1---------0---------|
----------------------|----------------------|----------------------|-------3---------1----|-----------------1----|-------3---------1----|-------1---------2----|-------2---------0----|-------1---------2----|-------2---------2----|-------3--------------|-------2---------2----|------------0---------|-------3---------3----|------------0---------|--0-------------------|--1---------0---------|--0-------------------|
----------------------|----------0-----------|----------------------|-----------------1----|--4--3----1-----------|-------3---------3----|-------2---------0----|--2--1----2-----------|-------5---------4----|-------3--------------|--3--2----2-----------|-------4---------3----|-------3---------3----|----------0-----------|--0----3---------5----|--1---------0---------|--1--0----------------|------------3---------|
-------0---------0----|----------------------|-------0--------------|-------1---------2----|-------3---------3----|-------1---------5----|-------0---------0----|-------5---------4----|-------0---------3----|-----------------2----|-------4---------3----|-----------------5----|--3---------0---------|--0----3---------5----|--3-------------------|----------------------|------------3---------|------------3---------|
----------------------|----------------------|-------5--------------|----------------------|-------4---------4----|-------5---------4----|-------2---------2----|-------4---------4----|-------5---------2----|-------3---------3----|-------4---------4----|-----------------4----|-------3---------3----|--2---------2---------|--3---------2---------|--1---------1---------|----------------------|----------------------|
-------5---------5----|----------------------|-------1--------------|-------5---------5----|-------4---------2----|-------0---------4----|-------5---------5----|-------4---------4----|-------1---------4----|----------------------|-------4---------2----|--0--------------4----|--3---------3---------|--2---------4---------|------------6---------|----------------------|----------------------|----------------------|
-------0---------0----|--------1--------------|--------------------|-------0---------2----|--------3---------3----|--5--------4--------|-------0---------0----|--------2---------4----|--5--------4--------|-------2---------2----|--0-----3---------3----|--5--------3--------|------------0---------|-----------------------|--3-----------------|--0-------------------|-------------3---------|-----------3--------|
--------------------|--------------------|--0--------0--------|--5--------5--------|-----------4--------|--1--------1--------|--3--------3--------|--2--------5--------|--0--------0--------|--5--------5--------|--3--------4--------|--------------------|--3--------3--------|--3-----------------|--3--------3--------|--------------------|--1--------2--------|--------------------|
--------------------|--0-----------------|-------------------|-----------4--------|--1--------3--------|--1----------------|--2--------5--------|--0--------1--------|--2----------------|--3--------4--------|-----------2--------|--2----------------|--3-----------------|--3--------2--------|--0----------------|--1--------2--------|--------------------|-------------------|
----------------------|-------0---------0----|----------------------|-------3---------3----|-------1---------2----|-------3---------3----|-------5---------4----|-------0---------0----|-------5---------4----|-------4---------3----|-----------------2----|-------4---------3----|--0----3---------5----|--3---------0---------|--0----3---------5----|------------3---------|----------------------|------------3---------|
-------0---------0----|----------------------|-------1---------2----|-------3---------3----|-------0---------0----|-------5---------4----|-----------------2----|-------4---------3----|--3---------0---------|--0----3---------5----|----------------------|------------3---------|
(Repeat Intro)
|--0----------------|||--1----------------|||--0----------------|||--2----------------|||--3----------------|||--3----------------||
Tap to rate this tab
 
# A B C D E F G H I J K L M N O P Q R S T U V W X Y Z