What Hurts The Most tab with lyrics by Rascal Flatts - Easy chords and tabs for guitar

Rascal Flatts – What Hurts The Most tab

Rascal Flatts – What Hurts The Most
Tabbed and arranged by: Alejandro Manzano of Boyce Avenue

www.myspace.com/boyceavenue

video of me playing/singing it:
http://www.youtube.com/watch?v=WCq6Y3gTN7M

Tuning: D  G  C  F  A  D

 x = mute
 ^ = hammer on or pull off
 b = bend string/note

Verse 1:-----------------------------0-------------------|-------------------3-------3-----------3---------|-----------------0-------2-----------0---------0-|---------------2-------0-----------2---------4---|-0^2^3-2-0-----------------------3---------5-----|-----------3-0-----------------------------------|
-----------------0-------------------|-------3-------3-----------3---------|-----0-------2-----------0---------0-|---2-------0-----------2---------4---|---------------------3---------5-----|-0-----------------------------------|
---------------------------------------------|-------3-------3---------3-------3---------3-|-----0-------2---------0-------2---------0---|---2-------0---------2-------0---------2-----|-3-----------------------------------3-------|-------------------0-------------------------|
-------0-----0^2-------3^2----|-----3----3------3---------3b-|---2---------------2----------|-0-------------------0--------|------------------------------|------------------------------|
Chorus 1:-0-----2--3-----3-----3-3-3---2-|-0-----3--3-----3-----3-3-3---3-|-0-----2--0-----0-----0-0-2---2-|-2-----0--2-----0-----0-0-0---0-|-2-----0--3-----x-----2-3-0---0-|-0--------------3---------------|
-0-----2--3-----3-----3-3-3---2-|-0-----3--3-----3-----3-3-3---3-|-0-----2--0-----0-----0-0-2---2-|-2-----0--2-----0-----0-0-0---0-|-2-----0--3-----x-----2-3-0---0-|-0--------------3---------------|
Turnaround:-----------------0----------------------------|-------3-------3-----------3------------------|-----0-------2-----------0--------------------|---2-------0-----------2----------------------|---------------------3------------0^2^3-2-0---|-0------------------------------------------3-|
Verse 2:-----------------0-------------------|-------3-------3-----------3---------|-----0-------2-----------0---------0-|---2-------0-----------2---------4---|---------------------3---------5-----|-0-----------------------------------|
-----------------0-------------------|-------3-------3-----------3---------|-----0-------2-----------0---------0-|---2-------0-----------2---------4---|---------------------3---------5-----|-0-----------------------------------|
---------------------------------------------|-------3-------3---------3-------3---------3-|-----0-------2---------0-------2---------0---|---2-------0---------2-------0---------2-----|-3-----------------------------------3-------|-------------------0-------------------------|
-------0-----0^2-------3^2----|-----3----3------3---------3b-|---2---------------2----------|-0-------------------0--------|------------------------------|------------------------------|
Chorus 2:-0-----2--3-----3-----3-3-3---2-|-0-----3--3-----3-----3-3-3---3-|-0-----2--0-----0-----0-0-2---2-|-2-----0--2-----0-----0-0-0---0-|-2-----0--3-----x-----2-3-0---0-|-0--------------3---------------|
-0-----2--3-----3-----3-3-3---2----0---2---0----0-0-|-0-----3--3-----3-----3-3-3---3----1---3---1----1-3-|-0-----2--0-----0-----0-0-2---2----0---0---0----0-0-|-2-----0--2-----0-----0-0-0---0----2---x---2----2-0-|-2-----0--3-----x-----2-3-0---0----3---3---3----3-2-|-0--------------3-----------------------------------|
Breakdown:-0-----2--3--------------3-3------3---3-|-0-----3--3--------------3-3------3---3-|-0-----2--0-------0^2----0-0------0---0-|-2-----0--2---0^2------0---0------------|-2-----0--3------------x---x----2---3---|-0---------------------3---3------------|
--------0^2---2^3^2-----3-2-0---|------3-------------3---------3-|----2-------2----------2--------|-0------------------------------|--------------------------------|--------------------------------|
Chorus 3/Outro:-0-----2--3-----3-----3-3-3---2--3--3---3-----3---2-|-0-----3--3-----3-----3-3-3---3--3--3---3-----3---3-|-0-----2--0-----0-----0-0-2---2--0--0---0-----2---2-|-2-----0--2-----0-----0-0-0---0--0--0^2-2-----0---0-|-2-----0--3-----x-----2-3-0---0--2--3---3-----0---0-|-0--------------3-----------------------------------|
-----------------0----------------------------|-------3-------3-----------3------------------|-----0-------2-----------0--------------------|---2-------0-----------2----------------------|---------------------3------------0^2^3-2-0---|-0------------------------------------------3-|
-----------------0-------------3-|-------3-------3----3----------3-|-----0-------2---------2-------0-|---2-------0--------------0----2-|-------------------------------3-|-0-------------------------------|
Please rate this tab:
x1.0