Bless The Broken Road tab with lyrics by Rascal Flatts - Easy chords and tabs for guitar

Rascal Flatts – Bless The Broken Road tab

This is my first tab, so be nice. It's kinds the intro, but it's got some of the rest of
the song in there too. I don't know, it's just what i started playin' one day by ear. Try 
it, and if u can add to it, let me know.




e|--------0-2-0----2--------------------------------------------Repeat twice

B|----3-3-------3---------3-3-3-2-3-----------------------------
                                                                 
G|-2------------------2-----------------------------------------

D|--------------------------------------------------------------------------

A|--------------------------------------------------------------------------

E|--------------------------------------------------------------------------


e|--2h3-5-3-2-------0-2h3-2-0-----------------------------------------------

B|------------3--3----------------------------------------------------------
Please rate this tab:
x1.0