Rasmus - Not Like The Other Girls tab

Song:  Not Like The Other Girls
Artist:  The Rasmus
Album:  Dead Letters
Tuning:  Standard
Tabbed by:  Andrew

Ok, there's two guitar parts right throughout the song, three in the solo.  
The layout is self explanatory. This song rocks, and I haven't seen a 
decent tab for it yet, so I decided to tab it all.  This tab includes ALL 
the guitar parts I could hear.  If I've made any mistakes, email me at 
xenolith42@hotmail.com.  The only thing I'm not sure of is some of the 
harmonics and pinch harmonics in the solo.

(#) = Ghost note.  Don't play the note in brackets, just let ring from before.
[#] = Natural Harmonic.  [12] is a 12th fret harmonic.
 v  = Vibrato
 /  = Slide up
 \  = Slide Down
 x  = Palm mute
 ^  = Bend
 h  = Hammer on
 p  = Pull off
 t  = Tremelo picking
 +  = Wah Pedal

-Intro- Clean Guitar
                                        
                                                                           
||---------------------|--------------------------|||-12----10----8---7---|------12----10----8---7---|||----12----11---9---7/|-(12)----12----11---9---7/|||---------------------|--------------------------|||---------------------|--------------------------|||---------------------|--------------------------|
|-------------------------|---------------------[12]|||-----12----10----8---7---|------12-------10----[12]|||(12)----12----11---9---7/|-(12)----12\11----11-[12]|||-------------------------|-------------------------|||-------------------------|-------------------------|||-------------------------|-------------------------||
With Distortion - Both Guitars
||---------------------|--------------------------|||-12----10----8---7---|------12----10----8---7---|||----12----11---9---7/|-(12)----12----11---9---7/|||---------------------|--------------------------|||---------------------|--------------------------|||---------------------|--------------------------|
|| | || | || | ||---------------------|--------------------------|||---------------------|--------------------------|||---------------------|--------------------------|||-2-------------------|-2--------------------9-7-|||-2-------------------|-2--------------------9-7-|||-0-------------------|-0--------------------7-5-|
X2
|-------------------------|-------------------------|||-----12----10----8---7---|------12-------10--------|||(12)----12----11---9---7/|-(12)----12\11----11--12V|||-------------------------|-------------------------|||-------------------------|-------------------------|||-------------------------|-------------------------||
| + ||| ||| |||-------------------------|-------------------------|||-------------------------|-------------------------|||-------------------------|-------------------------|||-5-------------------5-4-|-2----------2------------|||-5-------------------5-4-|-2----------2------------|||-3-------------------3-2-|-0----------0------------|| ^ Play 2nd time
=========================================================================== -Verse- 1st guitar clean, 2nd guitar with distortion. Clean 1st Guitar in the background
||----------------------||||-12----10----8---7----||||----12----11---9---7/-|| (x8)||----------------------||||----------------------||||----------------------||
2nd Guitar palm mutes these chords in the background. E5 E5 No more blame I am destined to keep you sane C5 Gotta rescue the flame E5 Gotta rescue the flame in your heart E5 E5 No more blood, I will be there for you my love C5 I will stand by your side E5 The world has forsaken my girl ====================================================================================== -Prechorus- Both guitars with some distortion
Emin Emin cadd9 D/F# Emin D/F# G B ||-----|-----7--------------|-----7------0-------------|-----7--------------3-----||||-----|-----8--------------|-----8------3-----3-------|-----8----------3---3---4-||||-----|-----9--------------|-----9------0-----2-------|-----9----------2---0---4-||||-----|-----9--------------|-----9------2-----0-------|-----9----------0---0---4-||||-----|-----7--------------|-----7------3-----0-------|-----7----------0---2---2-||||-----|--------------------|------------------2-------|----------------2---3-----||
|| |||| |||| ||||-----|--------------------|--------------------------|--------------------------||||-----|--------------------|--------------------------|--------------------------||||-----|--------------------|--------------------------|--------------------------||||-7-9-|-10-------2-----7-9-|-10---------2-----4---7-9-|-10---------2---4---5---9-||||-7-9-|-10-------2-----7-9-|-10---------2-----4---7-9-|-10---------2---4---5---9-||||-5-7-|-8--------0-----5-7-|-8----------0-----2---5-7-|-8----------0---2---3---7-||
||--------------------------------------------------||||--------------------------------------------------||||--------------------------------------------------||||---9-10-7-9-10-7-9-10-7-9-10-7-9-10-7-9-10-7-9----||||-7------------------------------------------------||||--------------------------------------------------||
|| xxxxxxxxxxxxxxxxxxxxxxxxxxxxxxxxxxxxxxxxxxxxxxx || || |||| || ||--------------------------------------------------||||--------------------------------------------------||||--------------------------------------12---11-----||||-----------------------------7----9---12---11-----||||-----------------------------7----9---10---9------||||-----------------------------5----7---------------||
================================================================================ -Chorus- 1st guitar light or no distortion. 2nd Guitar with heavy distortion.
||---------------------------------------------------------------------|||---------------------------------------------------------------------|||---------------------------------------------------------------------|||-------------------------7-7-9-9-10-10-10-10-10-10-10-10-10-10-10-10-|||-10-10-10-10-10-10-10-10---------------------------------------------|||---------------------------------------------------------------------|
|| ||| | ||---------------------------------------------------------------------|||---------------------------------------------------------------------|||---------------------------------------------------------------------|||-5--------------------------------7----------------------------------|||-5--------------------------------7----------------------------------|||-3--------------------------------5----------------------------------|
|---------------------------------------------------|||---------------------------------------------------|||---------------------------------------------------|||-----------------------7-7-9-9-9-9-9-9-9-9-9-9-9-9-|||-9-9-9-9-9-9-9-9-10-10-----------------------------|||---------------------------------------------------||
| || | || |---------------------------------------------------|||---------------------------------------------------|||---------------------------------------------------|||-4-------------------------5-----------9-----------|||-4-------------------------5-----------9-----------|||-2-------------------------3-----------7-----------||
Play that twice and end the 2nd time with..
||---||||---||||---||||-9-||||-9-||||---||
|| || || || ||---||||---||||---||||-9-||||-9-||||-7-||
====================================================================== -Main riff- Both Guitars with heavy distortion
||---------------------|-------------------------||||-12----10----8---7---|------12-------10--------||||----12----11---9---7/|-(12)----12\11----11--9v-||||---------------------|-------------------------||||---------------------|-------------------------||||---------------------|-------------------------||
|| || || || ||---------------------|-------------------------||||---------------------|-------------------------||||---------------------|-------------------------||||-2-------------------|-2-----------------------||||-2-------------------|-2-----------------------||||-0-------------------|-0-----------------------||
=================================================================== Repeat Verse (with different lyrics) Repeat Pre-chorus Repeat Chorus =================================================================== -Solo- 2 Guitars, 1st guitar with distortion playing the top line. 2nd guitar with heavy distortion playing the bottom line. Note: To play the solo with one guitar, just play the top line all the way through.
With Wah pedal and effects ||---------------------------------------------------------|||---------------------------------------------------------|||---------------------------------------------------------|||-7h9-9-----7\5h7-5\4-----------------------5---7p5-7^9---|||---------------------5/7--7------------5h7---------------|||---------------------------------------------------------| +
|----------------------------------------------------|||----------------------------------------------------|||----------------------------------------------------|||-7-7------5-5------4-4-------5-5------4-4-----------|||---------------------------------------------7------|||----------------------------------------------------||
| + + + + + || | |||----------------------------------------------------|||----------------------------------------------------|||----------------------------------------------------|||-----------------------5-4-2-2---------------2------|||-----------------------5-4-2-2---------------2------|||-----------------------3-2-0-0---------------0------||
||----------------------------------------------------------|||-12t---------------------------------12-10----------------|||------14-12h14p12------------12------------12-11-9--------|||------------------14-12---14----14-----------------12-----|||----------------------------------------------------------|||----------------------------------------------------------|
|| ||| |||----------------------------------------------------------|||----------------------------------------------------------|||----------------------------------------------------------|||(2)-------------------------------------------------------|||(2)-------------------------------------------------------|||(0)-------------------------------------------------------|
|------------------------------------------------------------||----------------10-------10------------------------10-------||12-11-----12p11----12p11----12-11h12p11------12p11----12p11-||------9---------------------------------10------------------||------------------------------------------------------------||------------------------------------------------------------|
| || ||------------------------------------------------------------||------------------------------------------------------------||--------------------------4---------------------------------||-2------------------------4-5-------------------------------||-2------------------------2-5-------------------------------||-0--------------------------3-------------------------------|
|-----------------------------------------------|||--10-------------------------------------------|||-----12-11h12p11p9-----------------------------|||-------------------9-----9\7-7\5-5\4-4\2-2p0-0-|||-----------------------------------------------|||-----------------------------------------------||
| || | || |-----------------------------------------------|||-----------------------------------------------|||---5-------------------------------------------|||---5-2-------------------2---------------------|||---3-2-------------------2---------------------|||-----0-------------------0---------------------||
3rd guitar appears now, playing the top line. 1st guitar now plays the bottom line, and 2nd guitar plays the middle line.
||------------------10----------------10-12-10----------------------------|||-12---10-12-13-12----13-12-10-12-13----------13-12-10-12-13-12-10-------|||------------------------------------------------------------------12-11-|||------------------------------------------------------------------------|||------------------------------------------------------------------------|||------------------------------------------------------------------------|
|| ||| |||------------------------------------------------------------------------|||------------------------------------------------------------------------|||------------------------------------------------------------------------|||-2----------------------------------------------------------------------|||-2----------------------------------------------------------------------|||-0----------------------------------------------------------------------|
|| | || | ||------------------------------------------------------------------------|||------------------------------------------------------------------------|||------------------------------------------------------------------------|||-2-----------------4-----------------5-----------------7----------------|||------------------------------------------------------------------------|||------------------------------------------------------------------------|
|------------------10----------------10-12-10----------------------------||-12---10-12-13-12----13-12-10-12-13----------13-12-10-12-13-12-10-------||------------------------------------------------------------------12-11-||------------------------------------------------------------------------||------------------------------------------------------------------------||------------------------------------------------------------------------|
| || ||------------------------------------------------------------------------||------------------------------------------------------------------------||------------------------------------------------------------------------||-2-----------------------------------------------------------------9--7-||-2-----------------------------------------------------------------9--7-||-0-----------------------------------------------------------------7--5-|
| | | | |------------------------------------------------------------------------||------------------------------------------------------------------------||------------------------------------------------------------------------||-9----------------12----------------14----------------17----------------||------------------------------------------------------------------------||------------------------------------------------------------------------|
|------------------10----------------10-12-10----------------------------||-12---10-12-13-12----13-12-10-12-13----------13-12-10-12-13-12-10-------||------------------------------------------------------------------12-11-||------------------------------------------------------------------------||------------------------------------------------------------------------||------------------------------------------------------------------------|
| | | | |------------------------------------------------------------------------||------------------------------------------------------------------------||------------------------------------------------------------------------||-5-----------------------------------------------------------------7--5-||-5-----------------------------------------------------------------7--5-||-3-----------------------------------------------------------------5--3-|
| | | | |------------------------------------------------------------------------||------------------------------------------------------------------------||------------------------------------------------------------------------||-17---------------19----------------21----------------19----------------||------------------------------------------------------------------------||------------------------------------------------------------------------|
|-----------------------11^12-11--|||------------10---10-12-----------|||-11---11-12----------------------|||---------------------------------|||---------------------------------|||---------------------------------||
| ||| || |---------------------------------|||---------------------------------|||---------------------------------|||-4-----4----4-----4----4---------|||-4-----4----4-----4----4---------|||-2-----2----2-----2----2---------||
| ||| || |---------------------------------|||---------------------------------|||---------------------------------|||-21--------------------------21--|||---------------------------------|||---------------------------------||
======================================================================= Repeat Chorus ======================================================================= -Outro- Clean Guitar
||---------------------|--------------------------|||-12----10----8---7---|------12----10----8---7---|||----12----11---9---7-|-7/12----12----11---9---7-|||---------------------|--------------------------|||---------------------|--------------------------|||---------------------|--------------------------|
|--------------------------|----------------------12-|||------12----10----8---7---|------12-------10-----12-|||-7/12----12----11---9---7-|-7/12----12-11----11--9--|||--------------------------|-------------------------|||--------------------------|-------------------------|||--------------------------|-------------------------||
Comments, suggestions, email me at xenolith42@hotmail.com
Tap to rate this tab
 
# A B C D E F G H I J K L M N O P Q R S T U V W X Y Z