Rasmus - Dead Promises tab

Artist : The Rasmus
Song : Dead Promises
Album : Hide From The Sun
Tab : Ā§chattenkrieger


PLEASE RATE THIS TAB!

Piano Intro and Verse , transcripted for guitar :

|---19----19----20----20----18----18----19----19----||------17----17----17----17----17----17----16----16-||---------------------------------------------------||---------------------------------------------------||---------------------------------------------------||---------------------------------------------------|
Intro
----------------| 3x----------------|----------------|--4--4--4--4--2-|--4--4--4--4--2-|--2--2--2--2--0-|
Verse play the piano intro through the whole verse Interlude If you have no piano , you can play these chords through the whole verse. Em G C B
|-----------0-----------3---------------0-----------2--||-----------0-----------0---------------1-----------0--||-----------0-----------0------------------------------||------------------------------------2----------4------||--------2----------2-------------3--------2-----------||-----0--------3---------------------------------------| Hide from the sun...
Em G C B--------------0--------------3------------0----------2-|--------------0--------------0------------1----------0-|--------------0--------------0-------------------------|---------------------------------------2----------4----|-----------2----------2-------------3--------2---------|--------0--------3-------------------------------------|
Verse----------------| 4x----------------|----------------|--4--4--4--4--2-|--4--4--4--4--2-|--2--2--2--2--0-|
after this part, play the interlude again Chorus
|-------------------------------------------------------| 2x|-------------------------------------------------------||---------5555555555555555------------------------------||---------5555555544444444----222----222-----222----222-||---------3333333333333333-XX-222-XX-222-XXX-222-XX-222-||--------------------------XX-000-XX-000-XXX-000-XX-000-|
|--------------------------------||--------------------------------||---------5~~---6~~---4-5-4------||---------5~~---6~~---4-5-4------||---------3~~---4~~---2-3-2------||--------------------------------| the time has come..
[Verse] [Interlude] [Chorus] Bride I think they use a clean sound, but I'm not sure
---------------------------|---------------------------|---------------------------|---------------------------|---------------------------|---0--0--0--0--0--0--0--0--| 4xPM . . . . . . . .
---------------------------|---------------------------|---------------------------|---------------------------|---3--3--3--3--3--3--3--3--| 2x---------------------------|PM . . . . . . . .
---------------------------|---------------------------|---------------------------|---------------------------|---------------------------| 2x---2--2--2--2--2--2--2--2--|PM . . . . . . . .
--> Distortion
-----------------------------|-----------------------------|-----------------------------|--xx-2---xx-2---xx-2---4--5--|--xx-2---xx-2---xx-2---4--5--|--xx-0---xx-0---xx-0---2--3--| 3x
After the bridge play the chorus again Outro
-----------------|-----------------|--------4-5-4~---|--7--2--4-5-4~---|--7--2--2-3-2~---|--5--0-----------|
Enjoy! if you have any questions or corrections -> schattenkrieger2005@hotmail.de
Tap to rate this tab
 
# A B C D E F G H I J K L M N O P Q R S T U V W X Y Z