Rata Blanca – Solo Para Amarte tab

ESTE SOLO ESTA DEDICADO A  DIANA MARIA CORTES PINEDA.



BUENO ESTE ES EL SOLO  MAS O MENOS IGUAL, SERIA IMPOSIBLE TRANSCRIBIRLO EXACTAMENTE COMO ES 
ASI QUE TIENE ALGUNAS VARIACIONES MUY PEQUEÑAS.


Esta es la parte en que la letra dice: 

"Saca el frio de mi cuerpo y mi doloooooooooooor......."
                                                               
E||----------------------------------|B||--17--15-13-----------------------|G||------------16-14-12--------------|D||---------------------15-14--------|A||----------------------------------|E||----------------------------------|
y aqui es cuando dice: "oh oh oh oh ohhhhh" (se toca con bendings de 2 semitonos es decir que tenes que digitar en el traste 15 y tensionar hasta que suene como en el 17)
E||------------------|B||--15b-----15r--13-|G||------------------|D||------------------|A||------------------|E||------------------|
esta es la frase que suena antes del solo: (son redondas)
E||--------------------|--------------------|--------------------|B||--------------------|--------------------|--------------------|G||--------------------|--------------------|--------------------|D||--------------------|--------------------|--------------------|A||--12----------------|--14----------------|--15----------------|E||--------------------|--------------------|--------------------|
----------------------||----------------------||----------------------||----------------------||--17------------------||----------------------||
y este es el solo:
E||--15b---------------|--15r---15r---15r---15b---|B||--------------------|--------------------------|G||--------------------|--------------------------|D||--------------------|--------------------------|A||--------------------|--------------------------|E||--------------------|--------------------------|
------20-20-19-15-17-19-20-20-19-17-15/17-|-------------------|------------------------------------------|-------------------|------------------------------------------|-------------------|------------------------------------------|-------------------|------------------------------------------|-------------------|------------------------------------------|-----------------5-|
----------------------------|--8h5h8h5-12h8h12h8-15h12h15h12-20h17h20h17-|----------------------------|--------------------------------------------|------------------5/---2----|--------------------------------------------|----7-7---------7-----------|--------------------------------------------|--7-----7-----7-------------|--------------------------------------------|----------5-5---------------|--------------------------------------------|
--20/22b-------22-22r---22r-|----22r---22b---------|----------------------------|----------------------|----------------------------|----------------------|----------------------------|----------------------|----------------------------|----------------------|----------------------------|----------------------|
----7h4---8h5---10h7---8h5---7h4---|--8h5---7h4---8h5---10h7---8h5---7h|--5-----5-----5------9-----5-----5-|------5-----5-----5------9-----5---|-----------------------------------|-----------------------------------|-----------------------------------|-----------------------------------|-----------------------------------|-----------------------------------|-----------------------------------|-----------------------------------|
--4---7h4---8h5---8h5---10h7---10h7-|----5-----5-----5-----5------9------|------------------------------------|------------------------------------|------------------------------------|------------------------------------|
----13h10----13h10----16h13----19b---19-17-|--19b-------15/17-------|--9-------12-------12-------15-------------|------------------------|-------------------------------------------|------------------------|-------------------------------------------|------------------------|-------------------------------------------|------------------------|-------------------------------------------|------------------------|
--------------20h17----17-12----12-8-|-----10-7----------------------|--------15/17-------17-------13------|--10------9-------------10-----|-------------------------------------|------------------7--9---------|-------------------------------------|------------8/10---------------|-------------------------------------|-------------------------------|-------------------------------------|-------------------------------|
--------------------------|---------------------|------------------------|--------------------------|---------------------|------------------------|-----10---9--10-----------|------9--------------|----7---5--7------------|-----------------9----10--|--12-----------------|--------------6----7--9-|--------------------------|---------------------|------------------------|--------------------------|---------------------|------------------------|
--------------------|----------------------------|---------------------------|--------------------|----------------------------|---------------------------|--------------------|---10---9--10---------------|--9--------9--10----9------|---10---------------|---------------9----10--12--|-------12--------------12--|--------------------|----------------------------|---------------------------|--------------------|----------------------------|---------------------------|
-------------------------------------------|-------------------------------------------|--9----------------------------------------|-------12-14-15-14-12-14-15-14-12-14-15-14-|-------------------------------------------|-------------------------------------------|
----------------------------------------------|----------------------------|----------------------------------------------|----------------------------|-----------------------------------------10---|--9--10--12---10------9-----|--12-14-15-14-12-14-15-14-12-14-15-14-12------|------------------12--------|----------------------------------------------|----------------------------|----------------------------------------------|----------------------------|
--------------------|------------------------|-----------------------|--------------------|------------------------|-----------------------|-------------7----5-|---7--9---7-------------|------------10---9--10-|--------------------|-------------9--10------|-----------------------|--------------------|------------------------|-----------------------|--------------------|------------------------|-----------------------|
---------------------------|------------------------|---------------------------|------------------------|----------------9--------9-|---10---9------9--------|---9----10--12-------12----|-----------12-----------|---------------------------|------------------------|---------------------------|------------------------|
----------------------------|-----------------16-17-16-------------------------|------15/17--------15/17-21-|--22-21-17-16-17----------------------------------|----------------------------|--------------------------17-16-17-16----------16-|----------------------------|--------------------------------------17-16-17----|----------------------------|--------------------------------------------------|----------------------------|--------------------------------------------------|
--------------------------------------------------|--------------------------------------------------|--17-16-------------------------------------------|--------17-20-17-16-17-16-14-13-14-16-17-16-14-16-|--------------------------------------------------|--------------------------------------------------|
-------------------------------|--------------------------------------17-19b-|-------------------------------|-----------------------------------17--------|-------------------------------|--------------------------------17-----------|--14-13------------------7-7---|------7-------19-19----------19--------------|--------12/14~---------7-----7-|----7------19-------19----19-----------------|---------------------5---------|--5-----17-------------17--------------------|
----20-19-17-16-19-17-16----------------------|-------------------------18-22-21-18-18-17-18-|----------------------------------------------|----------------------------------------------|----------------------------------------------|----------------------------------------------|
--------------------------------------------------|--21-22-21-18-17-18-21-18-17----------------------|-----------------------------14-13-14-17-16-13-14-|--------------------------------------------------|--------------------------------------------------|--------------------------------------------------|
------------------------------|--------------------------------|------------------------------|--------------------------------|--16--14--13/14/-13--10~------|--------------------------------|------------------------------|---14--15---14--17---15--14--12-|------------------------------|--------------------------------|------------------------------|--------------------------------|
----------------------------|------------------------|------------------|----------------------------|------------------------|------------------|----------------------------|------------------------|------------------|---10---12---12--12b---12b--|---12b---12/-14---------|------------------|----------------------------|------------------------|------------------|----------------------------|------------------------|------------------|
------------------|------------------||------------------|------------------||------------------|------------------||------------------|------------------||------------------|------------------||------------------|------------------||
ESTE PUEDE SONAR UN POCO COMPLICADO PERO NO LO ES, SI ALGUNAS PARTES TE PARECEN MUY ENREDADAS PODES IMPROVISAR EN LAS ESCALAS DE Em Y Am ARMONICA, RECORDA QUE EN LAS PARTES MAS RAPIDAS DEBES TOCAR CON LA MAYOR PRESICION POSIBLE. SI A ALGUIEN LE PARECE MUY CONFUSO TODO ESTO O LE INTERESA EL ARCHIVO MIDI DE ESTE TAB ME ENVIA UN MAIL A: karatekid262@hotmail.com Y CON GUSTO LE ENVIARE EL ARCHIVO CUALQUIER DUDA O CORRECCION POR FAVOR ME ESCRIBE AL CORREO ESPERO QUE LES HAYA GUSTADO, SALUDOS DESDE Popayán - COLOMBIA HASTA LA PROXIMA... julian guevara.
Please rate this tab:
x1.0