Rata Blanca - La Otra Cara De La Moneda tab

LA OTRA CARA DE LA MONEDA
RATA BLANCA
LA LLAVE DE LA PUERTA SECRETA

VIVA GIARDINO.
VIVA MALMSTEEN.
VIVA SLASH.
VIVA DX.
VIVA CARLITOS.
VIVA EL METAL.

las cuerdas medio tono abajo (Eb)E------------------------------------- ----|B------------------------------------- ----|G------------------------------------- 4 veces ----|D-2-----5--5-5-----2s5----2----------- -2--|A-2-----5--5-5--------------5-2------- -2--|E-0-----------------------------5-3-2- -0--|
(0:17)-----------|-<5>--<7>--|---<5>-----|-----------|
Ya no se.. (silencio)
(0:32)...-----------|-----------|-----7--5--|-----7--5--|-----5--3--|-----------|el camino
(0:35)------------------------------------|-5---5--7--8-7-5-------5--7--8-7-5--|-------------------5----------------|------------------------------------|------------------------------------|------------------------------------|Volvere si es que estas...
---------------------------|-----5--7--8-7-5-----------|-4-------------------7--5--|---------------------7--5--|---------------------5--3--|---------------------------| compartiendo mi desti-no
(0:49)------------------------------------------------|------------------------------------------------|--------------------9-------------------7-------|--7----7--9--10-----9-------------------7-------|--7-----------------7--7--9--10---------5-------|--5---------------------------------------------| ...y siento... ...la risa... ...de alguien...
------------------------------------------------|----------7-------------3-----------------------|-------------7---5---5-----5------9----------7--|------9------7---5----------------9---9--10-----|------9------5---3----------------7-------------|------7-----------------------------------------|...poder ...se alargan... ...los dias...
------------------------------|------------------------------|---9^-9-7----7^-----------7---|----------10------10--9---7---|--------------------------5---|------------------------------| ven te necesito una vez mas
(1:16)------------------------------------|---5--------------------------------|---5--------------------4---4--5-4--|---5--------------------5---5--5-5--|---3--------------------5---5--5-5--|------------------------3-----------| ...ya no se.....por ti...
-------------------------|-------------------------|-------------------------|------------7-----9-10---|------------7-----9-10---|------------5-----7-9----|...algo me daña...
----------------------------------------|----------------------------------------|---------9------------------------------|---------9--------5----------5----------|---------7---7^-5---7---7^-5---7-5-2-0--|----------------------------------------|...no estás
------------------------------------------|---5--------------------------------------|---5------------------------4-----4--5-4--|---5------------------------5-----5--5-5--|---3------------------------5-----5--5-5--|----------------------------3-------------| ...si no estas en marquesinas quedaran...
-------------------------|-------------------------|-------------------------|------------7-----9-10---|------------7-----9-10---|------------5-----7-9----|...esos deseos...
(1:40)------------------------------------- ----|------------------------------------- ----|------------------------------------- 4v ----|-2-----5--5-5-----2/5----2----------- -2--|-2-----5--5-5--------------5-2------- -2--|-0-----------------------------5-3-2- -0--|
Se que no... (silencio)
(2:18)...-----------|-----------|-----7--5--|-----7--5--|-----5--3--|-----------|...la vida
(2:21------------------------------------|-5---5--7--8-7-5-------5--7--8-7-5--|-------------------5----------------|------------------------------------|------------------------------------|------------------------------------| ...y sabre... ...disfrutar...
-----------------------------|-----5--7--8-7-5-------------|-4---------------------7--5--|-----------------------7--5--|-----------------------5--3--|-----------------------------| ...el valor de tus caricias
(2:21)------------------------------------------------|------------------------------------------------|--------------------9-------------------7-------|--7----7--9--10-----9-------------------7-------|--7-----------------7--7--9--10---------5-------|--5---------------------------------------------| ...Infame... ...sin culpa... ...muchos matarian...
-----------------------------------------------|---------7-------------3-----------------------|------------7---5---5-----5------9----------7--|-----9------7---5----------------9---9--10-----|-----9------5---3----------------7-------------|-----7-----------------------------------------|...amor ...y cubres... ...el mundo...
------------------------------|------------------------------|---9^-9-7----7^-----------7---|----------10------10--9---7---|--------------------------5---|------------------------------| con tu injusta forma...
(2:48)------------------------------------|---5--------------------------------|---5--------------------4---4--5-4--|---5--------------------5---5--5-5--|---3--------------------5---5--5-5--|------------------------3-----------| ...ya no se.....por ti...
-------------------------|-------------------------|-------------------------|------------7-----9-10---|------------7-----9-10---|------------5-----7-9----|...algo me daña...
----------------------------------------|----------------------------------------|---------9------------------------------|---------9--------5----------5----------|---------7---7^-5---7---7^-5---7-5-2-0--|----------------------------------------|...no estás
------------------------------------------|---5--------------------------------------|---5------------------------4-----4--5-4--|---5------------------------5-----5--5-5--|---3------------------------5-----5--5-5--|----------------------------3-------------| ...si no estas en marquesinas quedaran...
-------------------------|-------------------------|-------------------------|------------7-----9-10---|------------7-----9-10---|------------5-----7-9----|...esos deseos...
SOLO.................................(3:12) SOLO.................................(3:12)
UN POCO DIFICIL------------------------------------------------|--15^~--12~-------15^(12)-15^~---12-15--(15)^^--|------------------------------------------------|------------------------------------------------|------------------------------------------------|------------------------------------------------|
---------------------------------|--------10-----------------------|-9^-(7)----9~~-----7~~-----7^~^--|----------------10------10-------|---------------------------------|---------------------------------|
------15-15-14-12------------------------------------------|----14------------15^-------------15-15-13-12----15--------|--12------------------12~-------14------------14^~~~(14)~--|------------------------------12---------------------------|-----------------------------------------------------------|-----------------------------------------------------------|
rapido---------------------------------------------------------|-15-13-12-13-15-13--15-13-12-13-15-13--15-13-12-13-15-13-|---------------------------------------------------------|---------------------------------------------------------|---------------------------------------------------------|---------------------------------------------------------|
MAS RAPIDO---------------------------------------------------------|-15-13-12-13-15-15--15-13-12-13-15-13--15-13-12-13-15-13-|---------------------------------------------------------|---------------------------------------------------------|---------------------------------------------------------|---------------------------------------------------------|
-----------------|--15^--15---13~--|-----------------|-----------------|-----------------|-----------------|
(3:40)------------------------------------------------|------------------------------------------------|--------------------9-------------------7-------|-------7--9--10-----9-------------------7-------|--7-----------------7--7--9--10---------5-------|--5---------------------------------------------| ...y siento... ...la risa... ...de alguien...
------------------------------------------------|----------7-------------3-----------------------|-------------7---5---5-----5------9----------7--|------9------7---5-----9----------9---9--10-----|------9------5---3----------------7-------------|------7-----------------------------------------|...poder ...se alargan... ...los dias...
------------------------------|------------------------------|---9^-9-7----7^-----------7---|----------10------10--9---7---|--------------------------5---|------------------------------| ven te necesito una vez mas
(4:07)------------------------------------|---5--------------------------------|---5--------------------4---4--5-4--|---5--------------------5---5--5-5--|---3--------------------5---5--5-5--|------------------------3-----------| ...ya no se.....por ti...
-------------------------|-------------------------|-------------------------|------------7-----9-10---|------------7-----9-10---|------------5-----7-9----|...algo me daña...
----------------------------------------|----------------------------------------|---------9------------------------------|---------9--------5----------5----------|---------7---7^-5---7---7^-5---7-5-2-0--|----------------------------------------|...no estás
------------------------------------------| ---5--------------------------------------| ---5------------------------4-----4--5-4--| ---5------------------------5-----5--5-5--| ---3------------------------5-----5--5-5--| ----------------------------3-------------| ...si no estas en marquesinas quedaran...
-------------------------|-------------------------|-------------------------|------------7-----9-10---|------------7-----9-10---|------------5-----7-9----|...esos deseos...
(4:35)------------------------------------|---5--------------------------------|---5--------------------4---4--5-4--|---5--------------------5---5--5-5--|---3--------------------5---5--5-5--|------------------------3-----------| ...ya no se.....por ti...
-------------------------|-------------------------|-------------------------|------------7-----9-10---|------------7-----9-10---|------------5-----7-9----|...algo me daña...
----------------------------------------|----------------------------------------|---------9------------------------------|---------9--------5----------5----------|---------7---7^-5---7---7^-5---7-5-2-0--|----------------------------------------|...no estás
------------------------------------------|---5--------------------------------------|---5------------------------4-----4--5-4--|---5------------------------5-----5--5-5--|---3------------------------5-----5--5-5--|----------------------------3-------------| ...si no estas en marquesinas quedaran...
-------------------------|-------------------------|-------------------------|------------7-----9-10---|------------7-----9-10---|------------5-----7-9----|...esos deseos...
(4:59)-------------------------------------|-------------------------------------|-------------------------------------| X4-2-----5--5-5-----2/5----2-----------|-2-----5--5-5--------------5-2-------|-0-----------------------------5-3-2-|
-------------------|-------------------|-------------------|-2---5--5-5---/5\--|-2---5--5-5---/5\--|-0-----------------|SI ERES FAN DE RATA O MAGO O GUNS O STROKES O DE YMGWIE ESCRIBE:DEKISONER@HOTMAIL.COMDRAKER LOVES DEKIS
Tap to rate this tab
 
# A B C D E F G H I J K L M N O P Q R S T U V W X Y Z