Rata Blanca – Bajo El Poder Del Sol tab

TEMA: Bajo el poder del sol
DISCO: LA LLAVE DE LA PUERTA SECRETA
ENVIADOR POR: Juan Carlos López Ochoa
EMAIL: armorking93@hotmail.com


1º Guitarra


                                                                        
eb||------------------|--5------------------------|--10----------------|Bb||------------------|--8~-------7----9----10----|--13b---------------|Gb||------------------|---------------------------|--------------------|Db||------------------|---------------------------|--------------------|Ab||------------------|---------------------------|--------------------|Eb||------------------|---------------------------|--------------------|
--4-----------------------|--9-----------------|--2-----------------------|--7~-------5----7----9----|--12b---------------|--5~-------3----5----7----|--------------------------|--------------------|--------------------------|--------------------------|--------------------|--------------------------|--------------------------|--------------------|--------------------------|--------------------------|--------------------|--------------------------|
--7-----------------|------13------14------16------17------16------14--|--10b---------------|--14------14------14------14------14------14------|--------------------|--------------------------------------------------|--------------------|--------------------------------------------------|--------------------|--------------------------------------------------|--------------------|--------------------------------------------------|
------13------14------13------------------|--5------------------------|--14------14------14------14--------------|--8~-------7----9----10----|------------------------------16~---------|---------------------------|------------------------------------------|---------------------------|------------------------------------------|---------------------------|------------------------------------------|---------------------------|
--10----------------|--4-----------------------|--9-----------------|--13b---------------|--7~-------5----7----9----|--12b---------------|--------------------|--------------------------|--------------------|--------------------|--------------------------|--------------------|--------------------|--------------------------|--------------------|--------------------|--------------------------|--------------------|
--2-----------------------|--7-----------------|--5b-------3----5----7----|--10b---------------|--------------------------|--------------------|--------------------------|--------------------|--------------------------|--------------------|--------------------------|--------------------|
--------------------------------------|--------------------------------------|--------------------------------------|--------------------------------------|--------------------------------------|--------------------------------------|--------------------------------------|--------------------------------------|--4--4--4--4--4--4--2--2--2--2--2--2--|--------------------------------------|--------------------------------------|--5--5--5--5--5--5--4--4--4--4--4--4--|
--------------------------------------|--------------------------------------|--------------------------------------|--------------------------------------|--------------------------------------|--------------------------------------|--------------------------------------|--------------------------------------|--------------------------------------|--------------------------------------|--2--2--2--2--2--2--2--2--2--2--2--2--|--2--2--2--2--2--2--2--2--2--2--2--2--|
--------------------------------------|--------------------------------------|--------------------------------------|--------------------------------------|--------------------------------------|--------------------------------------|--------------------------------------|--------------------------------------|--------------------------------------|--5--5--5--2--2--2--------------------|--1--1--1--1--1--1--1--1--1--1--1--1--|--------------------4--4--4--1--1--1--|
--------------------------------------|--------------------------------------|--------------------------------------|--------------------------------------|--------------------------------------|--------------------------------------|--------------------------------------|--------------------------------------|--------------------------------------|--------------------------------------|--2--2--2--2--2--2--2--2--2--2--2--2--|--2--2--2--2--2--2--2--2--2--2--2--2--|
--------------------------------------|--------------------------------------|--------------------------------------|--------------------------------------|--------------------------------------|--------------------------------------|--------------------------------------|--------------------------------------|--------------------------------------|--4--4--4--4--4--4--4--4--4--4--4--4--|--1--1--1--1--1--1--1--1--1--1--1--1--|--------------------------------------|
--------------------|--------------------|---------------------|--------------------|--------------------|---------------------|--------------------|--------------------|---------------------|--------------------|--------------------|---------------------|--2~-------0~-------|--------------------|--4~-----------------|--------------------|--4~-------2~-------|-----------1----4----|
---------------------|---------------------|--------------------|---------------------|---------------------|--------------------|---------------------|---------------------|--------------------|---------------------|---------------------|--------------------|---------------------|--5~-------5----4----|--3~-------6~-------|--2~-------4----5----|---------------------|--------------------|
--------------------|--------------------|--------------------|--------------------|--------------------|--------------------|--11----------------|--10----------------|--------------------|--x-----------------|--x-----------------|--------------------|--9~----------------|--8~----------------|--2~-------5~-------|--------------------|--------------------|--------------------|
-------------------|---------------------|--------------------|-------------------|---------------------|--------------------|-------------------|---------------------|--------------------|-------------------|---------------------|--------------------|-------------------|---------------------|-----------4~-------|--2~---------------|--3~-----------5--3--|--1~----------------|
--5------------------------|--10----------------|--4-----------------------|--8~-------7----9----10----|--13~---------------|--7~-------5----7----9----|---------------------------|--------------------|--------------------------|---------------------------|--------------------|--------------------------|---------------------------|--------------------|--------------------------|---------------------------|--------------------|--------------------------|
--9-----------------|--2-----------------------|--7-----------------|--12~---------------|--5~-------3----5----7----|--10~---------------|--------------------|--------------------------|--------------------|--------------------|--------------------------|--------------------|--------------------|--------------------------|--------------------|--------------------|--------------------------|--------------------|
--------------------------------------|--------------------------------------|--------------------------------------|--------------------------------------|--------------------------------------|--------------------------------------|--------------------------------------|--------------------------------------|--4--4--4--4--4--4--2--2--2--2--2--2--|--------------------------------------|--------------------------------------|--5--5--5--5--5--5--4--4--4--4--4--4--|
--------------------------------------|--------------------------------------|--------------------------------------|--------------------------------------|--------------------------------------|--------------------------------------|--------------------------------------|--------------------------------------|--------------------------------------|--------------------------------------|--2--2--2--2--2--2--2--2--2--2--2--2--|--2--2--2--2--2--2--2--2--2--2--2--2--|
--------------------------------------|--------------------------------------|--------------------------------------|--------------------------------------|--------------------------------------|--------------------------------------|--------------------------------------|--------------------------------------|--------------------------------------|--5--5--5--2--2--2--------------------|--1--1--1--1--1--1--1--1--1--1--1--1--|--------------------4--4--4--1--1--1--|
--------------------------------------|--------------------------------------|--------------------------------------|--------------------------------------|--------------------------------------|--------------------------------------|--------------------------------------|--------------------------------------|--------------------------------------|--------------------------------------|--2--2--2--2--2--2--2--2--2--2--2--2--|--2--2--2--2--2--2--2--2--2--2--2--2--|
--------------------------------------|--------------------------------------|--------------------------------------|--------------------------------------|--------------------------------------|--------------------------------------|--------------------------------------|--------------------------------------|--------------------------------------|--4--4--4--4--4--4--4--4--4--4--4--4--|--1--1--1--1--1--1--1--1--1--1--1--1--|--------------------------------------|
--------------------|--------------------|---------------------|--------------------|--------------------|---------------------|--------------------|--------------------|---------------------|--------------------|--------------------|---------------------|--2~-------0~-------|--------------------|--4~-----------------|--------------------|--4~-------2~-------|-----------1----4----|
---------------------|---------------------|--------------------|---------------------|---------------------|--------------------|---------------------|---------------------|--------------------|---------------------|---------------------|--------------------|---------------------|--5~-------5----4----|--3~-------6~-------|--2~-------4----5----|---------------------|--------------------|
--------------------|--------------------|--------------------|--------------------|--------------------|--------------------|--11----------------|--10----------------|--------------------|--x-----------------|--x-----------------|--------------------|--9~----------------|--8-----------------|--2~-------5~-------|--------------------|--------------------|--------------------|
-------------------|---------------------|--------------------|-------------------|---------------------|--------------------|-------------------|---------------------|--------------------|-------------------|---------------------|--------------------|-------------------|---------------------|-----------4~-------|--2~---------------|--3~-----------5--3--|--1~----------------|
--5------------------------|--10----------------|--4-----------------------|--8~-------7----9----10----|--13~---------------|--7~-------5----7----9----|---------------------------|--------------------|--------------------------|---------------------------|--------------------|--------------------------|---------------------------|--------------------|--------------------------|---------------------------|--------------------|--------------------------|
--9-----------------|--2-----------------------|--7-----------------|--12~---------------|--5~-------3----5----7----|--10~---------------|--------------------|--------------------------|--------------------|--------------------|--------------------------|--------------------|--------------------|--------------------------|--------------------|--------------------|--------------------------|--------------------|
------13------14------16------17------16------14--|--14------14------14------14------14------14------|--------------------------------------------------|--------------------------------------------------|--------------------------------------------------|--------------------------------------------------|
------13------14------13------------------|--5------------------------|--14------14------14------14--------------|--8~-------7----9----10----|------------------------------16~---------|---------------------------|------------------------------------------|---------------------------|------------------------------------------|---------------------------|------------------------------------------|---------------------------|
--10----------------|--4-----------------------|--9-----------------|--13~---------------|--7~-------5----7----9----|--12~---------------|--------------------|--------------------------|--------------------|--------------------|--------------------------|--------------------|--------------------|--------------------------|--------------------|--------------------|--------------------------|--------------------|
--2-----------------------|--7-----------------|--5~-------3----5----7----|--10~---------------|--------------------------|--------------------|--------------------------|--------------------|--------------------------|--------------------|--------------------------|--------------------|
--12----10----9----7----9----10----|--9/---------------|--12----10----9----7----9----10----|--9~---------------|-----------------------------------|-------------------|-----------------------------------|-------------------|-----------------------------------|-------------------|-----------------------------------|-------------------|
---------2~------------------------|------------------------------|--------------5--3--2--3--5--3--2--|-----------------2--3~---2~---|-----------------------------------|--4--2--1--2--4---------------|-----------------------------------|------------------------------|-----------------------------------|------------------------------|--2--------------------------------|------------------------------|
---------2~------------------------|-----------------------------|--------------5--3--2--3--5--3--2--|-----------------------------|-----------------------------------|--4--2--1--4--2--1-----------|-----------------------------------|--------------------2~-------|-----------------------------------|-----------------------------|--2--------------------------------|-----------------------------|
---------2~------------------------|------------------------------------|--------------5--3--2--3--5--3--2--|-----------2--3--5--3--2--3--2------|-----------------------------------|--4--2--4---------------------------|-----------------------------------|------------------------------------|-----------------------------------|------------------------------------|--2--------------------------------|------------------------------------|
---------2~------------------------|-------------------------------|--------------5--3--2--3--5--3--2--|-------------------------10b---|-----------------------------------|--4--2--1--2--1----------------|-----------------------------------|-----------------4--2~---------|-----------------------------------|-------------------------------|--2--------------------------------|-------------------------------|
--7--7--7------7--7------7--7------7--7--|-----------10b-------10b-------10b-------|-----------------------------------------|-----------------------------------------|-----------------------------------------|-----------------------------------------|
------7--7------7--7------7--7------7--7--|--10b-------10b-------10b-------10b-------|------------------------------------------|------------------------------------------|------------------------------------------|------------------------------------------|
------9--9------9--9------9--9------9--9--|------9--9------9--9------------|--12b-------12b-------12b-------12b-------|--12b-------12b-------14r-------|------------------------------------------|--------------------------------|------------------------------------------|--------------------------------|------------------------------------------|--------------------------------|------------------------------------------|--------------------------------|
-----------------------------------------------|--10--12--14--12--10--9--10--12--10--9--7--10--|-----------------------------------------------|-----------------------------------------------|-----------------------------------------------|-----------------------------------------------|
--------------------------------------|------------------------------|--9--7--5--9--7--5-----------5--------|------------------------------|--------------------7--6--7-----7--6--|--4--7--6--------------4~-----|--------------------------------------|------------------------------|--------------------------------------|------------------------------|--------------------------------------|------------------------------|
--------------------|--------------------------------------------------|--------------------|--------------------------------------------------|----------2~-----4/-|--14--------------16--------------18--------------|--------------------|------16--15--16------16--15--16------16--15--16--|--------------------|--------------------------------------------------|--------------------|--------------------------------------------------|
--------------------------------------------------|------------------17--------------19--------------|--19----------------------------------------------|------16--15--16------16--15--16------16--15--16--|--------------------------------------------------|--------------------------------------------------|
--------------------------------------------------|--------------------------------------------------|--18------16------14------13------14------16------|------16------16------16------16------16------16--|--------------------------------------------------|--------------------------------------------------|
--------------------------------------------------|--------------------------------------------------|--18------16------14------13------14------16------|------16------16------16------16------16------16--|--------------------------------------------------|--------------------------------------------------|
-----------14-17b-------17b---|--17--14--17--14~-----------|--------14--------------------|----------------------------|-----14-----------------------|----------------------------|--16--------------------------|----------------------------|------------------------------|----------------------------|------------------------------|----------------------------|
------------17--------------17------|--14--17~-----------17~-------------|------------------------------------|------------------------------------|------------------------------------|------------------------------------|
--14--------------14--------------------------|------17--14----------17--14------------------|--------------16~-------------16~---16--14~---|----------------------------------------------|----------------------------------------------|----------------------------------------------|
--------------------------------------------------|--17--14------17--14------17--14------17--14------|----------14----------14----------14----------14--|--------------------------------------------------|--------------------------------------------------|--------------------------------------------------|
--------------------------------------------------|--17--12------17--12------17--12------17--12------|----------13----------13----------13----------13--|--------------------------------------------------|--------------------------------------------------|--------------------------------------------------|
--------------------------------------------------|--19--15------19--15------19--15------19--15------|----------16----------16----------16----------16--|--------------------------------------------------|--------------------------------------------------|--------------------------------------------------|
--17--16--14------------------------|--------------17--15--14------------|--------------------------16~-------|------------------------------------|------------------------------------|------------------------------------|
--------------------------------------------------|--------------------------------------------------|--------------------------14------14--16--14--16--|--16--14--16--18--16--18------18------------------|--------------------------------------------------|--------------------------------------------------|
--------------------------------------------------|--------------------------|--------------15------15--17--15--17--19--17--19--|--19b---19r-17------------|--18--16--18------18------------------------------|----------------19~-------|--------------------------------------------------|--------------------------|--------------------------------------------------|--------------------------|--------------------------------------------------|--------------------------|
--------------------------|---------9---------------------------------|--15b---15r-12------------|------9-----12--9--------12--9-------------|----------------14~-------|--11b--------------11b----------11--9--11b-|--------------------------|-------------------------------------------|--------------------------|-------------------------------------------|--------------------------|-------------------------------------------|
-------------------------------------------|---------2~------------------------|-------------------------------------------|--------------5--3--2--3--5--3--2--|--11r-9------11--9-------------------------|-----------------------------------|---------11---------11--9------------------|-----------------------------------|---------------------------11--9-----------|-----------------------------------|----------------------------------12--9----|--2--------------------------------|
------------------------------|---------2~------------------------|-----2--------------3~---2~---|--------------5--3--2--3--5--3--2--|--4-----4--2--1--4------------|-----------------------------------|------------------------------|-----------------------------------|------------------------------|-----------------------------------|------------------------------|--2--------------------------------|
-----------------------------|---------2~------------------------|-----------------------------|--------------5--3--2--3--5--3--2--|--4--2--1--2--1--------------|-----------------------------------|-----------------4--2~-------|-----------------------------------|-----------------------------|-----------------------------------|-----------------------------|--2--------------------------------|
--------------------------------------|----------------------------------|--5--3--2-----------------2--3-----2--|--3--2h3p2------------------------|-----------4--2--1--2--4--------4-----|--------------4----2----1---------|--------------------------------------|-----------------------------4----|--------------------------------------|----------------------------------|--------------------------------------|----------------------------------|
-------------------|------------------|----------------------------------------|--2~---------------|------------------|--14--0--0--0--0--0--12--0--0--0--0--0--|-------------------|------------------|----------------------------------------|-------------------|------------------|----------------------------------------|-------------------|------------------|----------------------------------------|-------------------|------------------|----------------------------------------|
---------------------------------------|--------------------------------------|--10--0--0--0--0--0--9--0--0--0--0--0--|--------------------------------------|---------------------------------------|--------------------------------------|---------------------------------------|--------------------------------------|---------------------------------------|--------------------------------------|---------------------------------------|--2--2--2--2--2--2--2--2--2--2--2--2--|
--------------------------------------|--------------------------------------|--------------------------------------|--------------------------------------|--------------------------------------|--------------------------------------|--------------------------------------|--------------------------------------|--------------------------------------|--------------------------------------|--2--2--2--2--2--2--2--2--2--2--2--2--|--1--1--1--1--1--1--1--1--1--1--1--1--|
--------------------------------------|--------------------------------------|--------------------------------------|--------------------------------------|--------------------------------------|--------------------------------------|--------------------------------------|--------------------------------------|--5--5--5--2--2--2--------------------|--------------------------------------|--------------------4--4--4--1--1--1--|--2--2--2--2--2--2--2--2--2--2--2--2--|
--------------------------------------|--------------------------------------|--------------------------------------|--------------------------------------|--------------------------------------|--------------------------------------|--------------------------------------|--------------------------------------|--------------------------------------|--------------------------------------|--2--2--2--2--2--2--2--2--2--2--2--2--|--1--1--1--1--1--1--1--1--1--1--1--1--|
--------------------------------------|--------------------|--------------------------------------|--------------------|--------------------------------------|--------------------|--------------------------------------|--------------------|--4--4--4--4--4--4--4--4--4--4--4--4--|--2~-------0~-------|--------------------------------------|--------------------|
--------------------|---------------------|---------------------|--------------------|---------------------|---------------------|--------------------|---------------------|---------------------|--------------------|---------------------|---------------------|--------------------|--4~-----------------|---------------------|--4~-------2~-------|-----------1----4----|--2~-------4----5----|
---------------------|--------------------|--------------------|---------------------|--------------------|--------------------|---------------------|--------------------|--11----------------|---------------------|--------------------|--x-----------------|--5~-------5----4----|--3~-------6~-------|--9~----------------|---------------------|--------------------|--------------------|
--------------------|--------------------|-------------------|--------------------|--------------------|-------------------|--10~---------------|--------------------|-------------------|--x-----------------|--------------------|-------------------|--8-----------------|--2~-------5~-------|-------------------|--------------------|--------------------|--2~---------------|
---------------------|--------------------|--5------------------------|---------------------|--------------------|--8~-------7----9----10----|---------------------|--------------------|---------------------------|---------------------|--------------------|---------------------------|---------------------|-----------4--------|---------------------------|--3~-----------5--3--|--1-----------------|---------------------------|
--10----------------|--4-----------------------|--9-----------------|--13~---------------|--7~-------5----7----9----|--12~---------------|--------------------|--------------------------|--------------------|--------------------|--------------------------|--------------------|--------------------|--------------------------|--------------------|--------------------|--------------------------|--------------------|
--2-----------------------|--7-----------------|--5~-------3----5----7----|--10~---------------|--------------------------|--------------------|--------------------------|--------------------|--------------------------|--------------------|--------------------------|--------------------|
--19b---21--17--21------21---------------17-|------------------------------|--------------------21------19--18-19-21----|--21-19-18-19-19r-------19~---|--------------------------------------------|------------------------------|--------------------------------------------|------------------------------|--------------------------------------------|------------------------------|--------------------------------------------|------------------------------|
------|------|------|------|------|------|------|------|------|------|------|------|------|------|------|------|------|------|------|------|------|------|------|------|------|------|------|------|------|------|------|------|------|------|------|------|------|------|------|------|------|------|------|------|------|------|------|------|------|------|------|------|------|------|------|------|------|------|------|------|------|------|------|------|------|------|
------|------|------|------|------|------|------|------|------|------|------|------|------|------|------|------|------|------|------|------|------|------|------|------|------|------|------|------|------|------|
----------14------16------17------16------14------|--14--14------14------14------14------14------14--|--------------------------------------------------|--------------------------------------------------|--------------------------------------------------|--------------------------------------------------|
-----------------------------|--15~------------------------|-----------------------------|-----------------------------|------------9----11----12/---|-----------------------------|
----------12------14------16------14------12------|--12--12------12------12------12------12------12--|--------------------------------------------------|--------------------------------------------------|--------------------------------------------------|--------------------------------------------------|
------------------------------|--14~-------------------------|------------------------------|------------14----16----18----|------------------------------|------------------------------|
----------10------12------14------12------10------|--10--10------10------10------10------10------10--|--------------------------------------------------|--------------------------------------------------|--------------------------------------------------|--------------------------------------------------|
------------------------------------|--12/-------12-14-15-12-14-15-12-14-|------------------------------------|------------------------------------|------------------------------------|------------------------------------|
-----12-------------------------------------------|----------------------------|--15----15-14-12----14-12----------12-14-15-14-12-|----------------------------|-----------------14-------14-13-14----------------|--14-13-11-14-13/-----------|--------------------------------------------------|----------------------------|--------------------------------------------------|----------------------------|--------------------------------------------------|----------------------------|
--21p17p14h17h21p17p14h17h21p17p14h17h21p17p14h17h21p17p14h17h21p17p14h17-|--------------------------------------------------------------------------|--------------------------------------------------------------------------|--------------------------------------------------------------------------|--------------------------------------------------------------------------|--------------------------------------------------------------------------|
--21p17p14h17h21p17p14h17h21p17p14h17h21p17p14h17h21p17p14h17h21p17p14h17-|--------------------------------------------------------------------------|--------------------------------------------------------------------------|--------------------------------------------------------------------------|--------------------------------------------------------------------------|--------------------------------------------------------------------------|
--19p16p12h16h19p16p12h16h19p16p12h16h19p16p12h16h19p16p12h16h19p16p12h16h|--------------------------------------------------------------------------|--------------------------------------------------------------------------|--------------------------------------------------------------------------|--------------------------------------------------------------------------|--------------------------------------------------------------------------|
--19p16p12h16h19p16p12h16h19p16p12h16h19p16p12h16h19p16p12h16h19p16p12h16-|--------------------------------------------------------------------------|--------------------------------------------------------------------------|--------------------------------------------------------------------------|--------------------------------------------------------------------------|--------------------------------------------------------------------------|
--17t14-10-14-17t14-10-14-16t14-10-14-17t14-10-14-19t14-10-14-17t14-10-14-|--------------------------------------------------------------------------|--------------------------------------------------------------------------|--------------------------------------------------------------------------|--------------------------------------------------------------------------|--------------------------------------------------------------------------|
--16t14-10-14-17t14-10-14-19t14-10-14-17t14-10-14-16t14-10-14-17t14-10-14-|--------------------------------------------------------------------------|--------------------------------------------------------------------------|--------------------------------------------------------------------------|--------------------------------------------------------------------------|--------------------------------------------------------------------------|
--16-17-16-14-13-16-14-13-|---|------|------|------|------|------|------|------|--------------------------|---|------|------|------|------|------|------|------|--------------------------|---|------|------|------|------|------|------|------|--------------------------|---|------|------|------|------|------|------|------|--------------------------|---|------|------|------|------|------|------|------|--------------------------|---|------|------|------|------|------|------|------|
------||------||------||------||------||------||
Please rate this tab:
x1.0