Ratt - Youre In Trouble tab

Song:You're In Trouble
Artist:Ratt
Written By:Ratt
Album:Out Of The Cellar
Tuning:Standard

Gtr I (E A D G B E) - 'Dist Elec 1'
Gtr II (E A D G B E) - 'Dist Elec 2'

       Intro
N.C.
4/4
Gtr I
                           \3_____________________
  Q     Wx8 
|----||------------|--------------|--------------||----||------------|--------------|--------------||----||------------|--------------|--------------||----||------------|--------------|--------------||----||------------|------<4>-----|-(<4>)--------||----||------------|--------------|--------------|
/|--------------|------------------------||--------------|------------------------||--------------|------------------<4>---||--------------|------------------------||-(<4>)--------|-(<4>)------(<4>)-------||--------------|------------------------|
\2_________/ \4 ~~~~~ ~~~~~~~~~~~~~~~~|-------------------|------------------------------|-----------|---------|||-------------------|---------------------------19p|=17--------|-(17)----|||-(<4>)------(<4>)--|---<12>--<19>-(<19>)-<24>-----|-----------|---------|||-------------------|------------------------------|-----------|---------|||-------------------|------------------------------|-----------|---------|||-------------------|------------------------------|-----------|---------||
1st Verse Wx8|--------||--------||--------||--------||--------||--------|
Chorus $ A F G||--------------------|-----------------|-----------------|----------------|||o-----3-2-----------|-3-2-------------|-----3-1---------|-3-1------------|||------2-2-4-2---2---|-2-2---4---2-2-0-|-----2-2-4-2---2-|-2-2---4--------|||--2-2-----2-2---2---|-------2---2-2---|-3-3-----3-3---3-|-------3--------|||o-0-0---------------|-----------------|-----------------|----------------|||--------------------|-----------------|-----------------|---------1-3-(3)|
| | Gtr II |
||--------------------|-----------------|-----------------|----------------|||o-----3-2-----------|-3-2-------------|-----3-1---------|-3-1------------|||------2-2-4-2---2-2-|-2-2---4---2-2---|-----2-2-4-2-----|-2-2---4---2--0-|||--2-2-2-2-2-2---2-2-|-2-2---2---2-2---|-3-0-----3-3---3-|-------3---3--0-|||o-0-0---------------|-----------------|-----------------|----------------|||--------------------|-----------------|-----------------|----------------|
1. To Coda A F|-------------------|-----------------|-----------------|----------------|||-----3-2-----------|-3-2-------------|-----3-1---------|-3-1------------|||-----2-2-4-2---2---|-2-2---4---2-2-0-|-----2-2-4-2---2-|-2-2---4--------|||-2-2-----2-2---2---|-------2---2-2---|-3-3-----3-3---3-|-------3--------|||-0-0---------------|-----------------|-----------------|----------------|||-------------------|-----------------|-----------------|-----------1-3--||
| |
|-------------------|-----------------|-----------------|-------------3--|||-----3-2-----------|-3-2-------------|-----3-1---------|-3-1---------3--|||-----2-2-4-2---2-2-|-2-2---4---2-2---|-----2-2-4-2-----|-2-2---4---2-4--|||-2-2-2-2-2-2---2-2-|-2-2---2---2-2---|-3-0-----3-3---3-|-------3---3----|||-0-0---------------|-----------------|-----------------|----------------|||-------------------|-----------------|-----------------|----------------||
2nd Verse Em|-----------------|-----------------|-----------------|------------------||-----------------|-8-------7-------|-----------------|-8-------10-------||-----9-----------|-7-------7-------|-----9-----------|-7----------------||-----9-----------|-----------------|-----7-----------|------------------||-----------------|-----------------|-----------------|------------------||-0-0-------------|-----------------|-0-0-------------|------------------|
| |
|-----------------|-----------------|-----------------|------------------||-----------------|-----------------|-----------------|------------------||-----------------|-----------------|-----------------|------------------||-----------------|-----4h5-----2h4-|-----------------|-----4h5------5h7-||-----5h7-----5h7-|-----------------|-----5h7-----5h7-|------------------||-0-0-----0-0-----|-0-0-----0-0-----|-0-0-----0-0-----|-0-0------0-0-----|
~~~|-------------------|-----------------|-----------------|-----------------|||-------------------|-8-------7-------|-----------------|-8---------------|||-------9-----------|-7-------7-------|-----9-----------|-7-------<7>-----|||-------9-----------|-----------------|-----9-----------|---------<7>-----|||-------------------|-----------------|-----------------|-----------------|||--0--0-------------|-----------------|-0-0-------------|-----------------||
| |
|-------------------|-----------------|-----------------|-----------------|||-------------------|-----------------|-----------------|-----------------|||-------------------|-----------------|-----------------|-----------------|||-(7)---------------|-----4h5-----2h4-|-----------------|----4h5-------5h7|||-------5h7-----5h7-|-----------------|-----5h7-----5h7-|-----------------|||-----------0-0-----|-0-0-----0-0-----|-0-0-----0-0-----|0-0------0--0----||
Pre Chorus Dm|-----------------|-----------------|----------------|------------||-----------------|-6-----6-5-----5-|----------------|-6----8-----||-----------------|---5-------5-----|----------------|-5----7-----||---------3---3---|-----5-------5---|-7--7-7-7-7-7-7-|------------||-5-5-5-5---5---5-|-----------------|-5--5-5-5-5-5-5-|------------||-----------------|-----------------|----------------|------------|
| |
|-----------------|---------------5-|----------------|------------||-----------------|-6-----6-5-----5-|----------------|-6----8/----||-----------------|---5-------5-----|-7--------------|-5----7/----||-----------------|-----5-------5---|-7--------------|------------||-5---5-5-5-5-5-5-|-----------------|----------------|------------||-----------------|-----------------|----------------|------------|
Em ~~~|-----------------|-----------------|-----------------|-------------------|||-----------------|-8-------7-------|-----------------|-8----------------o|||-----9-----------|-7-------7-------|-----9-----------|-7-------<7>-------|||-----9-----------|-----------------|-----9-----------|---------<7>-------|||-----------------|-----------------|-----------------|------------------o|||-0-0-------------|-----------------|-0-0-------------|-------------------||
| |
|-----------------|-----------------|-----------------|-------------------|||-----------------|-----------------|-----------------|------------------o|||-----------------|-----------------|-----------------|-------------------|||-----------------|-----4h5-----2h4-|-----------------|-----4h5-------5h7-|||-----5h7-----5h7-|-----------------|-----5h7-----5h7-|------------------o|||-0-0-----0-0-----|-0-0-----0-0-----|-0-0-----0-0-----|-0-0------0--0-----||
Bridge 2. F G E5 D/F#|-----------------||----------------|----------------||-3-1-------------||----------------|-3--------------||-2-2---4---------||----------------|-2--------------||-------3---------||----------------|-0--------------||-----------------||-2--------------|----------------||-----------3-----||-0--0-0-0-0-0-0-|-2--2-2-2-2-2-2-|
| |
|-----------------||----------------|----------------||-3-1-------------||----------------|-3--------------||-2-2---4------0--||----------------|-2--------------||-------3------0--||-2--------------|-0--------------||-----------------||-2--------------|----------------||-----------3-----||-0--------------|----------------|
G5 Esus4/Ab A5 B5 C5 D5|-3--------------|----------------|-----------|-----------|||-3--------------|----------------|-----------|-----------|||-0--------------|-2--------------|-----------|-----------|||-0--------------|-2--------------|-2----4----|-5----7----|||----------------|----------------|-0----2----|-3----5----|||-3--3-3-3-3-3-4-|-4--4-4-4-4-4-4-|-----------|-----------||
| |
|----------------|----------------|-----------|-----------|||-3--------------|----------------|-----------|-----------|||-2--------------|-2--------------|-2----4----|-----------|||-0--------------|-2--------------|-2----4----|-5----7----|||----------------|----------------|-0----2----|-3----5----|||----------------|----4-4-4-4-4-4-|-----------|-----------||
Guitar Solo C# E5 ~ |-3--||-------------------------------|----------------------||---[2]---------([2])-----5-4---|-2-(2)h4p2------------||-------------------------------|-----------4----------||-------------------------------|------------------2h6-||-------------------------------|----------------------||-------------------------------|----------------------|
| |
|-------------------------------|----------------------||-------------------------------|-5--------------------||-------------------------------|-4--------------------||-------------------------------|----------------------||-4--4--4-4-4-4---4---4-4-4-4-4-|----------------------||-------------------------------|----------------------|
C# E5|----------------------4-------|----------------------------||------------------------7-5-4-|-7-5p4---5p4-----------9-9--||-6-6----------(6)-------------|-------6-----6-4-6--4/------||------------------------------|----------------------------||------------------------------|----------------------------||------------------------------|----------------------------|
| |
|------------------------------|----------------------------||------------------------------|-5--------------------------||------------------------------|-4--------------------------||------------------------------|----------------------------||-4-4--4-4-4-4--4--4-4-4---4-4-|----------------------------||------------------------------|----------------------------|
C# |--3--||-9---9---(9)-------12---11h12p11----11-||---9-----------------------------14----||---------------------------------------||---------------------------------------||---------------------------------------||---------------------------------------|
| |
|---------------------------------------||---------------------------------------||---------------------------------------||---------------------------------------||-4---4-4--4--4-4-4--4-4--4--------4--4-||---------------------------------------|
E5
|-------11-12-14-12-11----12-11----11-------------||-12-14----------------14-------14----14-12p10----||----------------------------------------------13-||-------------------------------------------------||-------------------------------------------------||-------------------------------------------------|
| |
|-------------------------------------------------||--5----------------------------------------------||--4----------------------------------------------||-------------------------------------------------||-------------------------------------------------||-------------------------------------------------|
C#
|------------14b16====(14)r==========||-14---------------------------------||-13-----/13-------------------------||------------------------------------||------------------------------------||------------------------------------|
| | |
|------------------------------------||------------------------------------||------------------------------------||------------------------------------||--4-4-4---4--4-----4---4--4-4-4-4-4-||------------------------------------|
E5 ~~~~
|(14)--12h14p12-(12)-----|12-12---------------------12----------12---------||---------------------/15|------15b17==(15)r(15)-15----15-12-------15----15||------------------------|-----------------------------------14-------14---||------------------------|-------------------------------------------------||------------------------|-------------------------------------------------||------------------------|-------------------------------------------------|
| |
|------------------------|-------------------------------------------------||--5---------------------|--------------------5----------------------------||--4---------------------|--------------------4----------------------------||------------------------|-------------------------------------------------||------------------------|-------------------------------------------------||------------------------|-------------------------------------------------|
G5 D|------------------------------------------------||-12-15----15-12---------------------------------||-------14-------12-12-12-11-12-------12---------||-------------------------------14-12----14-14---||------------------------------------------------||------------------------------------------------|
| |
|--3-----------------------2---------------------||--3-----------------------3---------------------||--0-----------------------2---------------------||--0-----------------------0---------------------||------------------------------------------------||--3---------------------------------------------|
E5 ~~~~|--------------------------------------||-------12-----------------------------||--------------16b18==(16)--16r(16)-12-||-(14)------14-------------------------||--------------------------------------||--------------------------------------|
| |
|--------------------------------------||--------5-----------------------------||--------4-----------------------------||--------------------------------------||--------------------------------------||--------------------------------------|
G5 D E5 ~ |--3--| |-3--| |-3--||-------------------------------------------|---14-14b16=====14r(14)-||-------------------------------------------|------------------------||-16p12h16-12h16-11h12p11-9h11p9---------9--|------------------------||--------------------------------12p9h12----|-x----------------------||-------------------------------------------|------------------------||-------------------------------------------|------------------------|
| |
|--3----------------------2-----------------|------------------------||--3----------------------3-----------------|-------5----------------||--0----------------------2-----------------|-------4----------------||--0----------------------0-----------------|------------------------||-------------------------------------------|------------------------||--3----------------------------------------|------------------------|
G5 D|-12----12----12------------------------------||----15---------------------------------------||----------15----15-12----15-12-14b16r(14)-x/-||----------------------14---------------------||---------------------------------------------||---------------------------------------------|
| |
|--3-----------------------2------------------||--3-----------------------3------------------||--0-----------------------2------------------||--0-----------------------0------------------||---------------------------------------------||--3------------------------------------------|
E5 |-------------12--17-12-------------15-19-15----15-||-------12-16--------------------15----------19----||-12-15-----------------15s18-19-------------------||--------------------------------------------------||--------------------------------------------------||--------------------------------------------------|
| |
|--------------------------------------------------||--------------5-----------------------------------||--------------4-----------------------------------||--------------------------------------------------||--------------------------------------------------||--------------------------------------------------|
D.S. al Coda G5 D|-------20----21----22-22b24-(22)-----|||-------------------------------------|||-17s18----18----19-------------------|||-------------------------------------|||-------------------------------------|||-------------------------------------||
| | |
|--3---------------------------2------|||--3---------------------------3------|||--0---------------------------2------|||--0---------------------------0------|||-------------------------------------|||--3----------------------------------||
Outro Chorus & F A ~~~~~ T|-<12>---<7>--------------------------||-------------------------||------------<7>----------------------||-10---10(22)-------------||----------------<5>-<7>-(<7>)-----/9-||-------------------------||-------------------------------------||-------------------------||-------------------------------------||-------------------------||-------------------------------------||-------------------------|
| |
|-------------------------------------||-------------------------||---3--1------------------------------||-------3-----2-----------||---2--2----------4--------------0----||-------2-----2-4-2---2-2-||-----------------3--------------0----||--2-2--2-----2-2-2---2-2-||-------------------------------------||--0-0--------------------||------------------------------1------||-------------------------|
F T |-3--||-------------------------------|---------------------------------||-(10(22))-----12-(12)-12p8---8-|-(8)-10---10---(10)-8h10p8-------||---------------------------9---|--------9------------------9-----||-------------------------------|---------------------------------||-------------------------------|---------------------------------||-------------------------------|---------------------------------|
| |
|-------------------------------|---------------------------------||---3------2--------------------|-----------3-1-------------------||---2------2----4---------2-2---|-----------2-2---4--2------------||---2------2----2---------2-2---|--3---0----------3--3--------3---||-------------------------------|---------------------------------||-------------------------------|---------------------------------|
G|----------------------------9---||--------------------------------||-(9)---(9)-7pb9r(7)p5-(5)-----9-||--------------------------------||--------------------------------||--------------------------------|
| |
|--------------------------------||--3--1--------------------------||--2--2-----------4----------0---||-----------------3----------0---||--------------------------------||--------------------------3-----|
A F5|---------------------|----------------15--|-15b17=====||-10-------12---------|-13h====15-15-------|-----------||---------------------|--------------------|-----------||---------------------|--------------------|-----------||---------------------|--------------------|-----------||---------------------|--------------------|-----------|
| |
|---------------------|--------------------|-----------||------3-2------------|--3-2---------------|-----------||------2-2--4-2---2-2-|--2-2----4----2--2--|-----------||--2-2-2-2--2-2---2-2-|--2-2----2----2--2--|--3--------||--0-0----------------|--------------------|--3--------||---------------------|--------------------|--1--------|
G5 A5|-(15)r-----------|------0h3-3s7-7-8-8-12-||-----------------|-----------------------||-----------------|-----------------------||-----------------|-----------------------||-------------x\--|-----------------------||-----------------|-----------------------|
| |
|-----------------|-----------------------||-----------------|-----------------------||-----------------|-----------------------||---5------5------|-7---------------------||---5------5------|-7---------------------||---3------3------|-5---------------------|
~~~|-12s=15-15s19-19-------|-17\----------*||-----------------------|--------------*||-----------------------|--------------*||-----------------------|--------------*||-----------------------|--------------*||-----------------------|--------------*|
| |
|-----------------------|--5\----------*||-----------------------|--5\----------*||-----------------------|--------------*||-(7)-------------------|--7\----------*||-(7)-------------------|--7\----------*||-(5)-------------------|--5\----------*|
Tap to rate this tab
 
# A B C D E F G H I J K L M N O P Q R S T U V W X Y Z