Red Hot Chili Peppers - My Lovely Man tab

from "Blood Sugar Sex Magik"
Music by Anthony Kiedis Michael Balzary (Flea) John Frusciante Chad Smith
Warner Bros. Music 1991


Guitar 1
Moderately fast

                                                                                
E||------------------------|--------------------------|------------------------|B||------------------------|--------------------------|------------------------|G||------------------------|----------------7---------|------------------------|D||------------------------|--7~--5~--7/9~-----9\7-5--|------------------------|A||--7~--5~--7~--5~--7--5--|--------------------------|--7~--5~--7~--5~--7--5--|E||------------------------|--------------------------|------------------------|
--------------------------|------------------------|--------------------------|--------------------------|------------------------|--------------------------|--------------------------|------------------------|----------------7---------|--------------------------|------------------------|--7~--5~--7/9~-----9\7-5--|----------------5---------|--7~--5~--7~--5~--7--5--|--------------------------|--5~-3~---5/7~-----7\5-3--|------------------------|--------------------------|
------------------------|--------------------------|------------------------|------------------------|--------------------------|------------------------|------------------------|--------------------------|------------------------|------------------------|--------------------------|------------------------|--7~--5~--7~--5~--7--5--|----------------5~--------|--7~--5~--7~--5~--7--5--|------------------------|--5~-3~---5/7~-----7\5-3--|------------------------|
-------------------10-----------|-------------------------|--10~-8----10/12-------12\10-8--|-------------------------|--------------------------------|--9-9--7---9---7---9--7--|--------------------------------|-------------------------|--------------------------------|-------------------------|--------------------------------|-------------------------|
--------------------------|--------------------------|--------------------------|--------------------------|----------------7---------|--------------------------|--7~--5~--7/9~-----9\7-5--|--------------------------|--------------------------|--7--5--7--5--7--5--7--5--|--------------------------|--------------------------|
--------------------------|------------------------|--------------------------|--------------------------|------------------------|--------------------------|--------------------------|------------------------|----------------7---------|--6--4--6--4--6--4--6--4--|------------------------|--7~--5~--7/9~-----9\7-5--|--------------------------|--7~--5~--7~--5~--7--5--|--------------------------|--------------------------|------------------------|--------------------------|
------------------------|--------------------------|------------------------|------------------------|--------------------------|------------------------|------------------------|--------------------------|------------------------|------------------------|--------------------------|------------------------|--7~--5~--7~--5~--7--5--|----------------5~--------|--7~--5~--7~--5~--7--5--|------------------------|--5~-3~---5/7~-----7\5-3--|------------------------|
-------------------10-----------|-------------------------|--10~-8----10/12-------12\10-8--|-------------------------|--------------------------------|--9-9--7---9---7---9--7--|--------------------------------|-------------------------|--------------------------------|-------------------------|--------------------------------|-------------------------|
--------------------------|------------------|------------------|--------------------------|------------------|------------------|----------------7---------|------------------|------------------|--7~--5~--7/9~-----9\7-5--|------------------|------------------|--------------------------|------------------|------------------|--------------------------|------------------|------------------|
-----------------------8-|---------x-10--------x-10----10-|--x--8--x-8-----8----8-8-|--x------x-10--------x-10----10-|--x--5--x-5-----5----5-5-|--x------x-7---------x-7-----7--|--x--5--x-5-----5----5-5-|--x--7h9--------7h9--------9----|-------------------------|--------------------------------|-------------------------|--------------------------------|
----------------------------------|-------------------------------|----------12--12--------12--12-12-|---------12--12-------12--12---|----------12--12--x-----12--12-12-|--x---x--12--12--x----12--12---|--12h14---x-------14--------x--x--|--14--x----------14---x--------|--x---------------x---------------|--x--------------x-------------|----------------------------------|-------------------------------|
---------8--------8-x--8-8-|--------x-10--------8--x-8--|---------8--------8-x--8-8-|--------x-10--------8--x-8--|----x----5--------5-x--5-5-|----x---x-7---------7--x-7--|----5h7------5h7-----------|----7h9--------7h9----------|---------------------------|----x----------x------------|---------------------------|----------------------------|
------------------------------------|----------------------------------|------------14--12------14---12-----|------------14--12-------14--12---|--------x-x-12--12------12---12-----|------------12--12-------12--12---|--12h14-------------14-----------14-|--x-12-14-x---------14------------|--x---------------------------------|----------------------------------|------------------------------------|----------------------------------|
----------8--------8---8-8--|----------10--------10---10---|----------8--------8---8-8--|----------10--------10---10---|----------7--------7---7-7--|----------9---------9----9----|----5/7-x-----5/7----7------|----7/9-x------7/9-----9------|----------------------------|------------------------------|----------------------------|------------------------------|
-----------------------------------|------------------------------------|-----------14--12------14--12------|------------14--12---------14--12---|---------x-12--12------12--12------|------------12--12---------12--12---|--12h14------------14-----------12-|--14-12-14----------12h14-----------|-----------------------------------|------------------------------------|-----------------------------------|------------------------------------|
----------8--------8---8-8--|----------10--------10---10---|----------8--------8---8-8--|----------10--------10---10---|----------7--------7---7-7--|----------9---------9----9----|----5/7-x-----5/7----7------|----7/9-x------7/9-----9------|----------------------------|------------------------------|----------------------------|------------------------------|
------------------------------------|---------------------------------------|------------14--12------14--12------|-----x-x-x-14--12----------------------|--------x-x-12--12------12--12------|-----x-x-x-12--12----------------------|--12h14-------------14-----------14-|--14---------------14--14--14p12h14p12-|--x---------------------------------|---------------------------------------|------------------------------------|---------------------------------------|
------------------------|--------------------------|------------------------|------------------------|--------------------------|------------------------|------------------------|----------------7---------|------------------------|------------------------|--7~--5~--7/9~-----9\7-5--|------------------------|--7~--5~--7~--5~--7--5--|--------------------------|--7~--5~--7~--5~--7--5--|------------------------|--------------------------|------------------------|
--------------------------|------------------------|--------------------------|------------------------|--------------------------|------------------------|--------------------------|------------------------|----------------5~--------|--7~--5~--7~--5~--7--5--|--5~-3~---5/7~-----7\5-3--|------------------------|
-------------------10-----------|-------------------------|--10~-8----10/12-------12\10-8--|-------------------------|--------------------------------|--9-9--7---9---7---9--7--|--------------------------------|-------------------------|--------------------------------|-------------------------|--------------------------------|-------------------------|
--------------------------|------------------|------------------|--------------------------|------------------|------------------|----------------7---------|------------------|------------------|--7~--5~--7/9~-----9\7-5--|------------------|------------------|--------------------------|------------------|------------------|--------------------------|------------------|------------------|
Bm7 ----------8------------------|--10-10-10-10--10--10--10--10--10--10-|----------8------------------|--10-10-10-10--10--10--10--10--10--10-|----x---x-x--x-x----x--x-x-x-|--7--7--7--7---7---7---7---7---7---7--|----5h7-x-5--x-5h7--x--x-x-x-|--9--9--9--9---9---9---9---9---9---9--|----x---x----x-x----x--x-x-x-|--------------------------------------|-----------------------------|--------------------------------------|
Em7 ---12-12-12-12-12-12-12-12--12-12--12-12-12-|----12-12---12-12---x---12-12-12-|---12-12-12-12-12-12-12-12--12-12--12-12-12-|----12-12---12-12---x---12-12-12-|---12-12-12-12-12-12-12-12--12-12--12-12-12-|----12-12---12-12---x---12-12-12-|--------------------------------------------|---------------------------------|--------------------------------------------|---------------------------------|--------------------------------------------|---------------------------------|
Am7 Bm7 --8--8-8--8-8-8-8--8-8--8-8-8-|----10---10-10-10-10-------10-|--8--8-8--8-8-8-8--8-8--8-8-8-|----10---10-10-10-10-------10-|--5--5-5--5-5-5-5--5-5--5-5-5-|----7----7--7--7--7--------7--|--7--7-7--7-7-7-7--7-7--7-7-7-|----9----9--9--9--9--------9--|------------------------------|------------------------------|------------------------------|------------------------------|
------------------|------------------|------------------|------------------|------------------|------------------|------------------|------------------|------------------|------------------|------------------|------------------|------------------|------------------|------------------|------------------|------------------|------------------|------------------|------------------|------------------|------------------|------------------|------------------|
------------------|------------------|------------------|------------------|------------------|------------------|------------------|------------------|------------------|------------------|------------------|------------------|------------------|------------------|------------------|------------------|------------------|------------------|------------------|------------------|------------------|------------------|------------------|------------------|
------------------|------------------|----------------------------|------------------|------------------|--12------------12----12----|------------------|------------------|--14b-----------14b---14b---|------------------|------------------|----------------------------|------------------|------------------|----------------------------|------------------|------------------|----------------------------|
----------------------------|-----------------------------|--12--------------------12--|--14------14/15----15----15--|--14b-------------14b-------|-----------------------------|----------------------------|-----------------------------|----------------------------|-----------------------------|----------------------------|-----------------------------|
--------------------------------|---------------------------|--12------12----12--------12----|--8-------------8-----6----|--14b---------------12-14----14-|--10b-----------10b---8b---|--------------------------------|---------------------------|--------------------------------|---------------------------|--------------------------------|---------------------------|
-------------------------|-------------------------------|--5------------5----5----|--3----------------------------|--7b-----------7b---7b---|--5b-----------7-7-7-7-7-7-7-7-|-------------------------|-------------------------------|-------------------------|-------------------------------|-------------------------|-------------------------------|
-----------------------------|--12b-12-12------12-----------------------------|-----------------------------|-------------15b----15p12-------15----12-----12-|--5b---5b---5b---5r-5b-------|--------------------------15-14----14----14b----|-----------------------------|------------------------------------------------|-----------------------------|------------------------------------------------|-----------------------------|------------------------------------------------|
---------------------------------------------|-------------------15------------------12----|--14r-12-14-12-14b----14r-12-14-12-14b----14b|---------------------------------------------|---------------------------------------------|---------------------------------------------|
----------------------------------------|---15------12-----------------15--------|------14b-----14p12-14p12-14b----14r-12-|----------------------------------------|----------------------------------------|----------------------------------------|
------------------------------------------|------------15------------------15--------|--14p12-14b----14r-12-14-12-14b----14r-12-|------------------------------------------|------------------------------------------|------------------------------------------|
------------------------------------------|------------------------15~-----|------------15-----15-----15-----12-------|----17--17--17----14------------|--14-12-14b----14b----14b----14b----14/16b|--------16b-16-16----16---------|------------------------------------------|--------------------------------|------------------------------------------|--------------------------------|------------------------------------------|--------------------------------|
--15p12----12-------12-------15----17b---|--18r--------13---15b-----|--------15----x-15b----15h17----17-------|--------16b---------------|-----------------------------------------|--------------------------|-----------------------------------------|--------------------------|-----------------------------------------|--------------------------|-----------------------------------------|--------------------------|
------------------------|--------------------------|------------------------|------------------------|--------------------------|------------------------|------------------------|----------------7---------|------------------------|------------------------|--7~--5~--7/9~-----9\7-5--|------------------------|--7~--5~--7~--5~--7--5--|--------------------------|--7~--5~--7~--5~--7--5--|------------------------|--------------------------|------------------------|
--------------------------|------------------------|--------------------------|------------------------|--------------------------|------------------------|--------------------------|------------------------|----------------5~--------|--7~--5~--7~--5~--7--5--|--5~-3~---5/7~-----7\5-3--|------------------------|
-------------------10-----------|-------------------------|--10~-8----10/12-------12\10-8--|-------------------------|--------------------------------|--9-9--7---9---7---9--7--|--------------------------------|-------------------------|--------------------------------|-------------------------|--------------------------------|-------------------------|
--------------------------|------------------|------------------|--------------------------|------------------|------------------|----------------7---------|------------------|------------------|--7~--5~--7/9~-----9\7-5--|------------------|------------------|--------------------------|------------------|------------------|--------------------------|------------------|------------------|
---------8--------8-x--8-8-|--------x--10-------10--x-10--|---------8--------8-x--8-8-|--------x--10-------10--x-10--|----x----5--------5-x--5-5-|----x---x--7--------7---x-7---|----5h7------5h7-----------|----7h9--------7h9------------|---------------------------|----x----------x--------------|---------------------------|------------------------------|
-----------------------------------|------------------------------------|-----------12--12------14---12-----|------------14--12---------14--12---|---------x-12--12------12---12-----|------------12--12---------12--12---|--12h14------------14-----------12-|--14-12-14----------12-14-----------|--x--------------------------------|------------------------------------|-----------------------------------|------------------------------------|
---------8--------8-x--8-8-|--------x--10-------10--x-10--|---------8--------8-x--8-8-|--------x--10-------10--x-10--|----x----5--------5-x--5-5-|----x---x--7--------7---x-7---|----5h7------5h7-----------|----7h9--------7h9------------|---------------------------|----x----------x--------------|---------------------------|------------------------------|
-----------------------------------|------------------------------|-----------14--12------14---12-----|------14--12---------14--12---|---------x-12--12------12---12-----|------12--12---------12--12---|--12h14------------14-----------12-|--------------12h14-----------|--x--------------------------------|------------------------------|-----------------------------------|------------------------------|
---------8--------8-x--8-8-|--------x--10-------10--x-10--|---------8--------8-x--8-8-|--------x--10-------10--x-10--|----x----5--------5-x--5-5-|----x---x--7--------7---x-7---|----5h7------5h7-----------|----7h9--------7h9------------|---------------------------|----x----------x--------------|---------------------------|------------------------------|
-----------------------------------|------------------------------------|-----------14--12------14--12------|------------14--12---------14--12---|---------x-12--12------12--12------|------------12--12---------12--12---|--12h14------------14-----------12-|--14-12-14----------12h14-----------|--x--------------------------------|------------------------------------|-----------------------------------|------------------------------------|
---------8--------8-x--8-8-|--------x-10--------10--x-10--|---------8--------8-x--8-8-|--------x-10--------10--x-10--|----x----5--------5-x--5-5-|----x---x-7---------7---x-7---|----5h7------5h7-----------|----7h9--------7h9------------|---------------------------|----x----------x--------------|---------------------------|------------------------------|
------------------------------------|------------14--12------14--12------|--------x-x-12--12------12--12------|--12h14-------------14-----------14-|--x---------------------------------|------------------------------------|
--------------------------------------------|--------------------|----------14p12----14p12----14p12----14p12--|----------------12~-|----12-12-------12-------12-------12--------|----------------12~-|--------------------------------------------|----------------14~-|--------------------------------------------|--------------------|--------------------------------------------|--------------------|
------------------|-------------------|--------------------|-------------------|------------------|---------------3---|-------3--------3---|-------------------|------------------|-------------------|--------------------|----------------2r-|------------------|-------------------|--------------------|-------------------|------------------|-------------------|--------------------|-------------------|------------------|-------------------|--------------------|-------------------|
--------------------|-------------------|--------------------------|--------------------|-----3-------------|--------------------------|---0-------------2b-|-------------------|--2-0----2--0-------------|--------------------|-------------------|------2--------2--0--2----|--------------------|-------------------|--------------------------|--------------------|-------------------|--------------------------|
--------------------|--------------------|--------------------|----------------15b-|----------------12--|--------------------|--------------------|--------------------|----------------12--|--------------------|--------------------|--------------------|--------------------|--------------------|--------------------|--------------------|--------------------|--------------------|
------------------|------------------|------------------12--|------------------|------------------|------------------|------------12--------|------------------|------------------|------------------|----------------------|------------------|------------------|------------------|----------------------|------------------|------------------|------------------|----------------------|------------------|------------------|------------------|----------------------|------------------|
----------15------------------|--14--------------12----------------|-------------12--------12-----|--------12--------------12----------|----------------12--12----12--|------------------------------12----|------------------------------|------------------------------------|------------------------------|------------------------------------|------------------------------|------------------------------------|
--------------------------------------|--------------------|------------------|--15----12----------14----12----------|--------------------|------------------|--------------12----------------12----|--------------------|------------------|--------------------------------------|--14----------------|------------------|--------------------------------------|--------------------|------------------|--------------------------------------|--------------------|------------------|
------------------|------------------|--------------------|------------------||------------------|------------------|--------------------|------------------||------------------|------------------|-----------------12-|------------------||------------------|------------------|--------------------|------------------||------------------|------------------|--------------------|------------------||------------------|------------------|--------------------|------------------||
Tap to rate this tab
 
# A B C D E F G H I J K L M N O P Q R S T U V W X Y Z