Red Hot Chili Peppers - Transcending tab

#----------------------------------PLEASE NOTE---------------------------------#
#This file is the author's own work and represents their interpretation of the #
#song. You may only use this file for private study, scholarship, or research. #
#------------------------------------------------------------------------------#

TRANSCENDING
As recorded by The Red Hot Chilli Peppers
(From the 2000 Album ONE HOT MINUTE)


Transcribed by Nobbru

 Words by Anthony Kiedis Music by Red Hot Chili Peppers
Arranged by Red Hot Chili Peppers
 

Gtr I (E A D G B E) - 'Dave Navarro'
Gtr II (E A D G B E) - 'Dave Navarro'
Gtr III (E A D G B E) - 'Dave Navarro'


Intro & Verse Q=90 4/4 Gtr I|------------------------------------------||------------------------------------------||------------------------------------------||-9s11-11-11-(11)-11-11-11s9-9-9-9-9-9-9-9-||-7s=9--9--9--(9)--9--9--9s7-7-7-7-7-7-7-7-||------------------------------------------|
|--------------------------------------------------||--------------------------------------------------||--------------------------------------------------||-9s11-11-11-(11)-11-11-11-(11)-11s14-14-14-14-14\-||-7s=9--9--9--(9)--9--9--9--(9)--9s12-12-12-12-12\-||--------------------------------------------------|
|------------------------------------------||------------------------------------------||------------------------------------------||-9s11-11-11-(11)-11-11-11s9-9-9-9-9-9-9-9-||-7s=9--9--9--(9)--9--9--9s7-7-7-7-7-7-7-7-||------------------------------------------|
|---------------------------------------||---------------------------------------||---------------------------------------||-9s11-11-11-11-11-11-11----------------||-7s=9--9--9--9--9--9--9--9-9-9-9-9-9-9-||-------------------------7-7-7-7-7-7-7-|
|------------------------------------------||------------------------------------------||------------------------------------------||-9s11-11-11-(11)-11-11-11s9-9-9-9-9-9-9-9-||-7s=9--9--9--(9)--9--9--9s7-7-7-7-7-7-7-7-||------------------------------------------|
|--------------------------------------------------||--------------------------------------------------||--------------------------------------------------||-9s11-11-11-(11)-11-11-11-(11)-11s14-14-14-14-14\-||-7s=9--9--9--(9)--9--9--9--(9)--9s12-12-12-12-12\-||--------------------------------------------------|
|------------------------------------------||------------------------------------------||------------------------------------------||-9s11-11-11-(11)-11-11-11s9-9-9-9-9-9-9-9-||-7s=9--9--9--(9)--9--9--9s7-7-7-7-7-7-7-7-||------------------------------------------|
|---------------------------------------||---------------------------------------||---------------------------------------||-9s11-11-11-11-11-11-11----------------||-7s=9--9--9--9--9--9--9--9-9-9-7-7-7-7-||-------------------------7-7-7-5-5-5-5-|
|------------------------------------------||------------------------------------------||------------------------------------------||-9s11-11-11-(11)-11-11-11s9-9-9-9-9-9-9-9-||-7s=9--9--9--(9)--9--9--9s7-7-7-7-7-7-7-7-||------------------------------------------|
|--------------------------------------------------||--------------------------------------------------||--------------------------------------------------||-9s11-11-11-(11)-11-11-11-(11)-11s14-14-14-14-14\-||-7s=9--9--9--(9)--9--9--9--(9)--9s12-12-12-12-12\-||--------------------------------------------------|
|------------------------------------------||------------------------------------------||------------------------------------------||-9s11-11-11-(11)-11-11-11s9-9-9-9-9-9-9-9-||-7s=9--9--9--(9)--9--9--9s7-7-7-7-7-7-7-7-||------------------------------------------|
|---------------------------------------||---------------------------------------||---------------------------------------||-9s11-11-11-11-11-11-11----------------||-7s=9--9--9--9--9--9--9--9-9-9-7-7-7-7-||-------------------------7-7-7-5-5-5-5-|
Pre-Chorus Gtr II|---------------------------------------------||---------------------------------------------||-9s11-11-11-11--11--11-11-11-9-9-9-9-8-8-8-8-||---------------------------------------------||-7s=9--9--9--9---9---9--9--9-7-7-7-7-6-6-6-6-||---------------------------------------------|
|
| Gtr I|---------------------------------------------||---------------------------------------------||---------------------------------------------||-9s===11-11-11-(11)-11-11-11s9-9-9-9-9-9-9-9-||-7s====9--9--9--(9)--9--9--9s7-7-7-7-7-7-7-7-||---------------------------------------------|
|-----------------------------------------------------||-----------------------------------------------------||-8s=9--9--9---9---9--9--9---9---9s=6--6--6s=8--8--8--||-----------------------------------------------------||-6s=7--7--7---7---7--7--7---7---7s=4--4--4s=6--6--6--||-----------------------------------------------------|
|
|-----------------------------------------------------||-----------------------------------------------------||-----------------------------------------------------||-9s11-11-11-(11)-11-11-11-(11)-11s14-14-14-14-14\----||-7s=9--9--9--(9)--9--9--9--(9)--9s12-12-12-12-12\----||-----------------------------------------------------|
|------------------------------------------||------------------------------------------||-8s11-11-11--11--11-11-11s9-9-9-9s8-8-8-8-||------------------------------------------||-6s=9--9--9---9---9--9--9s7-7-7-7s6-6-6-6-||------------------------------------------|
|
|------------------------------------------||------------------------------------------||------------------------------------------||-9s11-11-11-(11)-11-11-11s9-9-9-9-9-9-9-9-||-7s=9--9--9--(9)--9--9--9s7-7-7-7-7-7-7-7-||------------------------------------------|
|----------------------------------------||----------------------------------------||-8s=9--9--9--9--9--9--9s6-6-6-6s4-4-4-4-||----------------------------------------||-6s=7--7--7--7--7--7--7s4-4-4-4s2-2-2-2-||----------------------------------------|
|
|----------------------------------------||----------------------------------------||----------------------------------------||-9s11-11-11-11-11-11-11-----------------||-7s=9--9--9--9--9--9--9---9-9-9-9-9-7-7-||--------------------------7-7-7-7-7-5-5-|
Chorus Gtr I ~~|------------------------------------|---------------------------------||------------------------------------|---------------------------------||-------------9h11-------------------|---------------------------------||---9h11-(11)------9h11---11p9-------|-------7----------9--------------||-9---------------------9------9-7---|---9------------9------11p9----0-||----------------------------------9-|-7---7---7h9S11-----11------11---|
~~|------------------------------------|---------------------------------||------------------------------------|---------------------------------||-------------9h11-------------------|---------------------------------||---9h11-(11)------9h11---11p9-------|-------7----------9--------------||-9---------------------9------9-7---|---9------------9------11p9----0-||----------------------------------9-|-7---7---7h9S11-----11------11---|
~~|------------------------------------|---------------------------------||------------------------------------|---------------------------------||-------------9h11-------------------|---------------------------------||---9h11-(11)------9h11---11p9-------|-------7----------9--------------||-9---------------------9------9-7---|---9------------9------11p9----0-||----------------------------------9-|-7---7---7h9S11-----11------11---|
~~|------------------------------------|---------------------------------||------------------------------------|---------------------------------||-------------9h11------9------------|---------------------------------||---9h11-(11)------9h11---11p9-------|-------7----------9--------------||-9---------------------9------9-7---|---9------------9------11p9----0-||----------------------------------9-|-7---7---7h9S11-----11------11---|
Verse|------------------------------------------||------------------------------------------||------------------------------------------||-9s11-11-11-(11)-11-11-11s9-9-9-9-9-9-9-9-||-7s=9--9--9--(9)--9--9--9s7-7-7-7-7-7-7-7-||------------------------------------------|
|--------------------------------------------------||--------------------------------------------------||--------------------------------------------------||-9s11-11-11-(11)-11-11-11-(11)-11s14-14-14-14-14\-||-7s=9--9--9--(9)--9--9--9--(9)--9s12-12-12-12-12\-||--------------------------------------------------|
|------------------------------------------||------------------------------------------||------------------------------------------||-9s11-11-11-(11)-11-11-11s9-9-9-9-9-9-9-9-||-7s=9--9--9--(9)--9--9--9s7-7-7-7-7-7-7-7-||------------------------------------------|
|---------------------------------------||---------------------------------------||---------------------------------------||-9s11-11-11-11-11-11-11----------------||-7s=9--9--9--9--9--9--9--9-9-9-9-9-9-9-||-------------------------7-7-7-7-7-7-7-|
|------------------------------------------||------------------------------------------||------------------------------------------||-9s11-11-11-(11)-11-11-11s9-9-9-9-9-9-9-9-||-7s=9--9--9--(9)--9--9--9s7-7-7-7-7-7-7-7-||------------------------------------------|
|--------------------------------------------------||--------------------------------------------------||--------------------------------------------------||-9s11-11-11-(11)-11-11-11-(11)-11s14-14-14-14-14\-||-7s=9--9--9--(9)--9--9--9--(9)--9s12-12-12-12-12\-||--------------------------------------------------|
|------------------------------------------||------------------------------------------||------------------------------------------||-9s11-11-11-(11)-11-11-11s9-9-9-9-9-9-9-9-||-7s=9--9--9--(9)--9--9--9s7-7-7-7-7-7-7-7-||------------------------------------------|
|---------------------------------------||---------------------------------------||---------------------------------------||-9s11-11-11-11-11-11-11----------------||-7s=9--9--9--9--9--9--9--9-9-9-9-9-9-9-||-------------------------7-7-7-7-7-7-7-|
|------------------------------------------||------------------------------------------||------------------------------------------||-9s11-11-11-(11)-11-11-11s9-9-9-9-9-9-9-9-||-7s=9--9--9--(9)--9--9--9s7-7-7-7-7-7-7-7-||------------------------------------------|
|--------------------------------------------------||--------------------------------------------------||--------------------------------------------------||-9s11-11-11-(11)-11-11-11-(11)-11s14-14-14-14-14\-||-7s=9--9--9--(9)--9--9--9--(9)--9s12-12-12-12-12\-||--------------------------------------------------|
|------------------------------------------||------------------------------------------||------------------------------------------||-9s11-11-11-(11)-11-11-11s9-9-9-9-9-9-9-9-||-7s=9--9--9--(9)--9--9--9s7-7-7-7-7-7-7-7-||------------------------------------------|
|---------------------------------------||---------------------------------------||---------------------------------------||-9s11-11-11-11-11-11-11----------------||-7s=9--9--9--9--9--9--9--9-9-9-9-9-9-9-||-------------------------7-7-7-7-7-7-7-|
Pre-chorus 2 Gtr II|---------------------------------------------||---------------------------------------------||-9s11-11-11-11--11--11-11-11-9-9-9-9-8-8-8-8-||---------------------------------------------||-7s=9--9--9--9---9---9--9--9-7-7-7-7-6-6-6-6-||---------------------------------------------|
|
| Gtr I|---------------------------------------------||---------------------------------------------||---------------------------------------------||-9s===11-11-11-(11)-11-11-11s9-9-9-9-9-9-9-9-||-7s====9--9--9--(9)--9--9--9s7-7-7-7-7-7-7-7-||---------------------------------------------|
|-----------------------------------------------------||-----------------------------------------------------||-8s=9--9--9---9---9--9--9---9---9s=6--6--6s=8--8--8--||-----------------------------------------------------||-6s=7--7--7---7---7--7--7---7---7s=4--4--4s=6--6--6--||-----------------------------------------------------|
|
|-----------------------------------------------------||-----------------------------------------------------||-----------------------------------------------------||-9s11-11-11-(11)-11-11-11-(11)-11s14-14-14-14-14\----||-7s=9--9--9--(9)--9--9--9--(9)--9s12-12-12-12-12\----||-----------------------------------------------------|
|------------------------------------------||------------------------------------------||-8s11-11-11--11--11-11-11s9-9-9-9s8-8-8-8-||------------------------------------------||-6s=9--9--9---9---9--9--9s7-7-7-7s6-6-6-6-||------------------------------------------|
|
|------------------------------------------||------------------------------------------||------------------------------------------||-9s11-11-11-(11)-11-11-11s9-9-9-9-9-9-9-9-||-7s=9--9--9--(9)--9--9--9s7-7-7-7-7-7-7-7-||------------------------------------------|
|----------------------------------------||----------------------------------------||-8s=9--9--9--9--9--9--9s6-6-6-6s4-4-4-4-||----------------------------------------||-6s=7--7--7--7--7--7--7s4-4-4-4s2-2-2-2-||----------------------------------------|
|
|----------------------------------------||----------------------------------------||----------------------------------------||-9s11-11-11-11-11-11-11-----------------||-7s=9--9--9--9--9--9--9---9-9-9-9-9-9-9-||--------------------------7-7-7-7-7-7-7-|
Chorus Gtr I ~~|------------------------------------|---------------------------------||------------------------------------|---------------------------------||-------------9h11-------------------|---------------------------------||---9h11-(11)------9h11---11p9-------|-------7----------9--------------||-9---------------------9------9-7---|---9------------9------11p9----0-||----------------------------------9-|-7---7---7h9S11-----11------11---|
~~|------------------------------------|---------------------------------||------------------------------------|---------------------------------||-------------9h11-------------------|---------------------------------||---9h11-(11)------9h11---11p9-------|-------7----------9--------------||-9---------------------9------9-7---|---9------------9------11p9----0-||----------------------------------9-|-7---7---7h9S11-----11------11---|
~~|------------------------------------|---------------------------------||------------------------------------|---------------------------------||-------------9h11-------------------|---------------------------------||---9h11-(11)------9h11---11p9-------|-------7----------9--------------||-9---------------------9------9-7---|---9------------9------11p9----0-||----------------------------------9-|-7---7---7h9S11-----11------11---|
~~|------------------------------------|---------------------------------||------------------------------------|---------------------------------||-------------9h11------9------------|---------------------------------||---9h11-(11)------9h11---11p9-------|-------7----------9--------------||-9---------------------9------9-7---|---9------------9------11p9----0-||----------------------------------9-|-7---7---7h9S11-----11------11---|
Interlude & Outro|---------------------------------------------------||---------------------------------------------------||----------------------11----11h13----11-(11)----13-||-----------11h13-(13)------------------------------||-9h11-(11)---------------11-------11---------11----||---------------------------------------------------|
|---------------------------------------||---------------------------------------||-15-13-(13)-13-------13-13-13-11-11-11-||-11-11-(11)-11-14-14-14-14-14-13-13-13-||---------------11-11-------------------||---------------------------------------|
|-----------------------------------------------------||-----------------------------------------------------||-------11-11-(11)-11-13-13-(13)-13-13-13-11-13-13-11-||-11h13-13-13-(13)-13-13-13-(13)-13-13-13-13-13-13-11-||-11--------------------------------------------------||-----------------------------------------------------|
|-------------------------------------------------||-------------------------------------------------||-15-15-15-13-13-13----------13-13-13-13-11-11-11-||-11-11-11-11-11-11-14-14-14-14-14-14-14-13-13-13-||-------------------11-11-11----------------------||-------------------------------------------------|
|-----------------------------------------------||-----------------------------------------------||-------11-(11)-11-11h13-(13)-13-13-11-13-13-11-||-11h13-13-(13)-13-13---------13-13-13-13-13-11-||-11--------------------------------------------||-----------------------------------------------|
|----------------------------------------||----------------------------------------||-15-15-15-13-13-13---------13-13--------||-11-11-11-11-11-11-14-(14)-14-14-14-13--||-------------------11-(11)-11-11-11-11--||----------------------------------------|
|-----------------------------|------------------------------||-----------------------------|------------------------------||-8-8-8-(8)-8-8-8-8-8-8-8-x-x-|-8-8-8-(8)-8-9-9-9-9-9-9-x-x--||-9-9-9-(9)-9-9-9-9-9-9-9-x-x-|-9-9-9-(9)-9-9-9-9-9-9-9-x-x--||-9-9-9-(9)-9-9-9-9-9-9-9-x-x-|-7-7-7-(7)-7-7-7-7-7-7-7-x-x--||-7-7-7-(7)-7-7-7-7-7-7-7-x-x-|------------------------------|
|-----------------------------|------------------------------||-----------------------------|------------------------------||-8-8-8-(8)-8-8-8-8-8-8-8-x-x-|-8-8-8-(8)-8-9-9-9-9-9-9-x-x--||-9-9-9-(9)-9-9-9-9-9-9-9-x-x-|-9-9-9-(9)-9-9-9-9-9-9-9-x-x--||-9-9-9-(9)-9-9-9-9-9-9-9-x-x-|-7-7-7-(7)-7-7-7-7-7-7-7-x-x--||-7-7-7-(7)-7-7-7-7-7-7-7-x-x-|------------------------------|
|-----------------------------|------------------------------||-----------------------------|------------------------------||-8-8-8-(8)-8-8-8-8-8-8-8-x-x-|-8-8-8-8-8-9-9-9-9-9-9-9-9-9/-||-9-9-9-(9)-9-9-9-9-9-9-9-x-x-|-9-9-9-9-9-9-9-9-9-9-9-9-9-9/-||-9-9-9-(9)-9-9-9-9-9-9-9-x-x-|-7-7-7-7-7-7-7-7-7-7-7-7-7-7/-||-7-7-7-(7)-7-7-7-7-7-7-7-x-x-|------------------------------|
|------------------------------------------||----------------------------9--9--9--9--9-||-11-11-11-(11)-11-11-11-11-11-11-11-11-11-||-11-11-11-(11)-11-11-11-11-11-11-11-11-11-||--9--9--9--(9)--9--9--9--9--9--9--9--9--9-||--9--9--9--(9)--9--9--9--9--9--9--9--9--9-|
|-----------------9--9--9--9--9--9--9--9--9-||--9--9--9--9--9--9--9--9--9--9--9--9--9--9-||-11-11-11-11-11-11-11-11-11-11-11-11-11-11-||-11-11-11-11-11-11-11-11-11-11-11-11-11-11-||--9--9--9--9--9--9--9--9--9--9--9--9--9--9-||--9--9--9--9--9--9--9--9--9--9--9--9--9--9-|
|--9--9--9--9--9--9--9--9--9--9--9--9--9--9-||--9--9--9--9--9--9--9--9--9--9--9--9--9--9-||-11-11-11-11-11-11-11-11-11-11-11-11-11-11-||-11-11-11-11-11-11-11-11-11-11-11-11-11-11-||--9--9--9--9--9--9--9--9--9--9--9--9--9--9-||--9--9--9--9--9--9--9--9--9--9--9--9--9--9-|
Gtrs I, III ~~~~~~~~~~~~~|--9--9--9--9--9--9--9--9--9--9--9--9--9--9-|--------12-(12)--(12)-15-(15)-||--9--9--9--9--9--9--9--9--9--9--9--9--9--9-|--------12-(12)--(12)-14-(14)-||-11-11-11-11-11-11-11-11-11-11-11-11-11-11-|--------12-(12)--(12)---------||-11-11-11-11-11-11-11-11-11-11-11-11-11-11-|------------------------------||--9--9--9--9--9--9--9--9--9--9--9--9--9--9-|------------------------------||--9--9--9--9--9--9--9--9--9--9--9--9--9--9-|-0--(0)-----------------------|
\0.5/ \1.5/ ~~~~~~~~~~~~~ ~~~~~~~~~~~~~|-----------------------------------------|-------------------12-(12)--(12)---||-------------------12-(12)--(12)-14-(14)-|-------------------12-(12)--(12)---||-------------------12-(12)--(12)-14-(14)-|-------------------12-(12)--(12)---||-----------------------------------------|-----------------------------------||-----------------------------------------|---------------------------------x-||-0-----(0)-(0)-(0)-----------------------|-0-----(0)-(0)-(0)---------------x-|
|-------------------------------------------||-------------------------------------------||-------------------------------------------||-11-11-11-12-12-12s7-7-7-5-5-5-------------||-----------------------------------5-7b11==||--9--9--9-10-10-10s5-5-5-3-3-3-5h7---------|
~~~~~~~~~~~~~|-----------------12-(12)--(12)-------------------------||---------------0-12-(12)--(12)-15b17r(15)-15b19==(15)r-||-----------------12-(12)--(12)-------------------------||-------------------------------------------------------||-(7)--(7)-(7)r-----------------------------------------||-------------------------------------------------------|
\1/ \1.5/ ~~~~~~~~~~~~~ ~~~~~~~~~~~~~|------------12-(12)--(12)------------|-------------------12-(12)--(12)-----||------------12-(12)--(12)-15----(15)-|-------------------12-(12)--(12)-----||----------0-12-(12)--(12)-14b16r(14)-|-------------------12-(12)--(12)-0---||-------------------------------------|-------------------------------------||-------------------------------------|-------------------------------------||-0----(0)----------------------------|-0-----(0)-(0)-(0)-----------------x-|
|---------------------------------------||---------------------------------------||---------------------------------------||-11-11-11-12-12-12s7-9s7-5-5-5-7s9-----||---------------------------------------||--9--9--9-10-10-10s5-7s5-3-3-3-5s7-0-0-|
\2.5/ ~~~~~~~~~~~~~ ~~~~~~~~~~~~~|----------------12-(12)--(12)-------|-------------------12-(12)--(12)--------||----------------12-(12)--(12)-15----|-------------------12-(12)--(12)-15b19--||----------------12-(12)--(12)-14b16-|-------------------12-(12)--(12)--------||-7s9s12s17s23-0---------------------|----------------------------------------||------------------------------------|----------------------------------------||------------------------------------|-0-----(0)-(0)-(0)----------------------|
\1.5/ ~~~~~~~~~~~~~|-------------------12-(12)--(12)-----||-------------------12-(12)--(12)-----||-------------------12-(12)--(12)-0---||-------------------------------------||-----------------------------------x-||-0-----(0)-(0)-(0)-----------------x-|
\1.5/ ~~~~~~~~~~~~~|-----------------------------------------|-------x-12-(12)--(12)-12-----(12)--||-----------------------------------------|-------x-12-(12)--(12)-12-----(12)--||-----------------------------------------|-------x-12-(12)--(12)-12-----(12)--||-11-11-11-12-12-12s7-7-7-5-5-5-----------|------------------------------------||-----------------------------------5-7b9r|=(7)--------------------------------||--9--9--9-10-10-10s5-5-5-3-3-3-5h7-------|------------------------------------|
\2.5/ \1.5/ ~~~~~~~ ~~~~~~~|-----x-12-(12)------------|------------12-(12)----||-----x-12-(12)------------|------------12-(12)----||-----x-12-(12)--0-----(0)-|------------12-(12)----||--------------------------|-----------------------||--------------------------|-----------------------||-0------------------------|-0------(0)------------|
|-------------------------------------------||-------------------------------------------||-------------------------------------------||-11-11-11-12-12-12s7-7-7-5-5-5-------------||-----------------------------------5-7b11r=||--9--9--9-10-10-10s5-5-5-3-3-3-5h7---------|
\1.5/ \0.5/ \0.5/ \1.5/ \0.5/|-------------12-----(12)-(12)-(12)-|----------12--------|-------------------||-------------12-----(12)-(12)-(12)-|----------12--------|-------------------||-----------0-12-----(12)-(12)-(12)-|----------12--------|-------------------||-----------------------------------|--------------------|----------5--------||-(7)---(7)-------------------------|--------------------|-------------------||-----------------------------------|-0------------------|-0-----------------|
\1/ ~~~~~~~~~~~~~~~~~~~~~~|----------------------------------------------|----------|------------------||----------------------------------------------|----------|------------------||----------------------------------------------|----------|------------------||-11-11-11-12-12-12s7-7-7-5-5-5----------------|----------|------------------||-----------------------------------5-7b11r(7)-|-7--------|-(7)----(7)---7---||--9--9--9-10-10-10s5-5-5-3-3-3-5h7------------|----------|------------------|
\1/ \1/ \1/ ~~~~~~~|---------------------------------|------------------||---------------------------------|------------------||---------------------------------|------------------||---------------------------------|------------------||-(7)-(7)-7--(7)--7---7---(7)-7---|-(7)----(7)--(7)--||---------------------------------|------------------|
\1/ \1.5/|---------------|--------------------||---------------|--------0-------(0)-||---------------|--------0-------(0)-||---------------|--------------------||-7------(7)----|-(7)----------------||---------------|--------------------|
\1.5/ ~~~~~~~~~~~~~|------------12-(12)--(12)-14-(14)-||------------12-(12)--(12)-14-(14)-||------------12-(12)--(12)---------||----------------------------------||----------------------------------||-0------(0)-----------------------|
\1.5/ \1.5/ ~~~~~~~~~~~~~~~~~~ ~~~~~|-----------------------------------15-17b19-|----------------------------------||----------------17b20==(17)--(17)r----------|----------------------------------||--------------------------------------------|----------------<5>-(<5>)---(<5>)-||--------------------------------------------|----------------------------------||--------------------------------------------|----------------------------------||--0-----(0)-(0)-----------------------------|-0------(0)-(0)-------------------|
|-------------------------------------||-------------------------------------||-------------------------------------||-11-11-11-12-12-12s7-7-7-5-5-5-7/----||---------------------------------7-7-||--9--9--9-10-10-10s5-5-5-3-3-3-5s0-0-|
\1.5/ \0.5/ ~~~~~~~|-----------------12-(12)-------------|----------------------------------||-15--------------12-(12)-------------|---------------17b19==(17)r-------||-14b16-----------12-(12)---<5>-(<5>)-|------------------------------x-0-||-------------------------------------|----------------------------------||-------------------------------------|----------------------------------||-------0-----(0)---------------------|-0-----(0)-(0)--------------------|
\1.5/ ~~~~~~~|---------------12-(12)----||---------------12-(12)----||---------------12-(12)----||--------------------------||--------------------------||-0-----(0)-(0)------------|
|------------------------------------------|---------------||------------------------------------------|---------------||------------------------------------------|--------<5>----||-11-11-11-12-12-12s7-7-7-5-5-5------------|--------<5>----||-----------------------------------5-7b11r|=(7)-----------||--9--9--9-10-10-10s5-5-5-3-3-3-5h7--------|---------------|
\0.5/ \1.5/ ~~~~~~~~~~~~~|------------15-----(15)-(15)-(15)---|------------12-(12)--(12)-------||------------15b16==(15)-(15)-(15)r--|------------12-(12)--(12)-------||------------------------------------|------------12-(12)--(12)-0-0-0-||------------------------------------|--------------------------0-0-0-||------------------------------------|--------------------------------||-0------(0)-------------------------|-0------(0)---------------------|
\1/ ~~~~~~~~~~~|---------------------------|------------*||----------11-(11)-0---0----|-(0)--------*||----------10-(10)-0---0----|-(0)--------*||-11-11-11---------0---0----|-(0)--------*||------------------0---0----|-(0)--------*||--9--9--9---------0---0----|-(0)--------*|
Tap to rate this tab
 
# A B C D E F G H I J K L M N O P Q R S T U V W X Y Z