Red Hot Chili Peppers – Punk Rock Classic tab

Stone Cold Bush 
The Red Hot Chili Peppers

Send any problems/corrections to




 
Guitar 1 Whole song

E||----------------------------------|-----------------------------|B||------------11--------------11----|------------11---------------|G||------------10--------------10----|------------10---------------|D||----------------------------------|-----------------------------|A||--10-10-x-x-------10-10-x-x-------|--10-10-x-x--------7--8--9---|E||----------------------------------|-----------------------------|
----------------------------------|----------------------------|------------11--------------11----|----------------------------|------------10--------------10----|----5----5--3---------------|----------------------------------|--5----5--------------------|--10-10-x-x-------10-10-x-x-------|-----------------3----3--1--|----------------------------------|---------------3----3-------|
----------------------------------|-----------------------------|------------11--------------11----|------------11---------------|------------10--------------10----|------------10---------------|----------------------------------|-----------------------------|--10-10-x-x-------10-10-x-x-------|--10-10-x-x--------7--8--9---|----------------------------------|-----------------------------|
----------------------------------|----------------------------|------------11--------------11----|----------------------------|------------10--------------10----|----5----5--3---------------|----------------------------------|--5----5--------------------|--10-10-x-x-------10-10-x-x-------|-----------------3----3--1--|----------------------------------|---------------3----3-------|
----------------------------------|-----------------------------|------------11--------------11----|------------11---------------|------------10--------------10----|------------10---------------|----------------------------------|-----------------------------|--10-10-x-x-------10-10-x-x-------|--10-10-x-x--------7--8--9---|----------------------------------|-----------------------------|
----------------------------------|----------------------------|------------11--------------11----|----------------------------|------------10--------------10----|----5----5--3---------------|----------------------------------|--5----5--------------------|--10-10-x-x-------10-10-x-x-------|-----------------3----3--1--|----------------------------------|---------------3----3-------|
-------------------------------------|--------------------------------------|--15-15----15--------15-15---15------|----15----15--------15----15-15-15-15-|--15-15--x-15--x-x-x-15-15-x-15--x-x-|--x-15--x-15--x-x-x-15--x-15-15-15-15-|--15-15--x-15--x-x-x-15-15-x-15--x-x-|--x-15--x-15--x-x-x-15--x-15-15-15-15-|-------------------------------------|--------------------------------------|-------------------------------------|--------------------------------------|
-------------------------------------|----------------------------|--15-15----15--------15-15---15------|----------------------------|--15-15--x-15--x-x-x-15-15-x-15--x-x-|----5----5--3---------------|--15-15--x-15--x-x-x-15-15-x-15--x-x-|--5----5--------------------|-------------------------------------|-----------------3----3--1--|-------------------------------------|---------------3----3-------|
----------------------------------|--------------------------------------|----15----15--------15----15------|----15----15--------15----15-15-15-15-|--x-15--x-15--x-x-x-15--x-15--x-x-|--x-15--x-15--x-x-x-15--x-15-15-15-15-|--x-15--x-15--x-x-x-15--x-15--x-x-|--x-15--x-15--x-x-x-15--x-15-15-15-15-|----------------------------------|--------------------------------------|----------------------------------|--------------------------------------|
-------------------------------------|----8----8--6---------------|--15-15----15--------15-15---15------|--8----8--------------------|--15-15--x-15--x-x-x-15-15-x-15--x-x-|-----------------5----5--3--|--15-15--x-15--x-x-x-15-15-x-15--x-x-|---------------5----5-------|-------------------------------------|----------------------------|-------------------------------------|----------------------------|
-----------------------------------|----------------------------------------|----------15--------15-----15------|----15-----15-15-15----15-----15-15-15--|--x-x-x-x-15--x-x-x-15-x-x-15--x-x-|--x-15-x-x-15-15-15--x-15-x-x-15-15-15--|--x-x-x-x-15--x-x-x-15-x-x-15--x-x-|--x-15-x-x-15-15-15--x-15-x-x-15-15-15--|-----------------------------------|----------------------------------------|-----------------------------------|----------------------------------------|
------------------------------|------------------------------|----------15------------15----|----------15------------15----|--x-x-x-x-15----x-x-x-x-15----|--x-x-x-x-15----x-x-x-x-15----|--x-x-x-x-15----x-x-x-x-15----|--x-x-x-x-15----x-x-x-x-15----|------------------------------|------------------------------|------------------------------|------------------------------|
----------------------------------|--------------------------------|----15----15--------15----15------|----15----15--------15----15----|--x-15--x-15--x-x-x-15--x-15--x-x-|--x-15--x-15--x-x-x-15--x-15----|--x-15--x-15--x-x-x-15--x-15--x-x-|--x-15--x-15--x-x-x-15--x-15----|----------------------------------|--------------------------------|----------------------------------|--------------------------------|
----------------------------------|-----------------------------|------------11--------------11----|------------11---------------|------------10--------------10----|------------10---------------|----------------------------------|-----------------------------|--10-10-x-x-------10-10-x-x-------|--10-10-x-x--------7--8--9---|----------------------------------|-----------------------------|
----------------------------------|----------------------------|------------11--------------11----|----------------------------|------------10--------------10----|----5----5--3---------------|----------------------------------|--5----5--------------------|--10-10-x-x-------10-10-x-x-------|-----------------3----3--1--|----------------------------------|---------------3----3-------|
-------------------------------------|--------------------------------------|--15-15----15--------15-15---15------|----15----15--------15----15-15-15-15-|--15-15--x-15--x-x-x-15-15-x-15--x-x-|--x-15--x-15--x-x-x-15--x-15-15-15-15-|--15-15--x-15--x-x-x-15-15-x-15--x-x-|--x-15--x-15--x-x-x-15--x-15-15-15-15-|-------------------------------------|--------------------------------------|-------------------------------------|--------------------------------------|
-------------------------------------|----------------------------|--15-15----15--------15-15---15------|----------------------------|--15-15--x-15--x-x-x-15-15-x-15--x-x-|----5----5--3---------------|--15-15--x-15--x-x-x-15-15-x-15--x-x-|--5----5--------------------|-------------------------------------|-----------------3----3--1--|-------------------------------------|---------------3----3-------|
----------------------------------|--------------------------------------|----15----15--------15----15------|----15----15--------15----15-15-15-15-|--x-15--x-15--x-x-x-15--x-15--x-x-|--x-15--x-15--x-x-x-15--x-15-15-15-15-|--x-15--x-15--x-x-x-15--x-15--x-x-|--x-15--x-15--x-x-x-15--x-15-15-15-15-|----------------------------------|--------------------------------------|----------------------------------|--------------------------------------|
-------------------------------------|----8----8--6---------------|--15-15----15--------15-15---15------|--8----8--------------------|--15-15--x-15--x-x-x-15-15-x-15--x-x-|-----------------5----5--3--|--15-15--x-15--x-x-x-15-15-x-15--x-x-|---------------5----5-------|-------------------------------------|----------------------------|-------------------------------------|----------------------------|
-----------------------------------|----------------------------------------|----------15--------15-----15------|----15-----15-15-15----15-----15-15-15--|--x-x-x-x-15--x-x-x-15-x-x-15--x-x-|--x-15-x-x-15-15-15--x-15-x-x-15-15-15--|--x-x-x-x-15--x-x-x-15-x-x-15--x-x-|--x-15-x-x-15-15-15--x-15-x-x-15-15-15--|-----------------------------------|----------------------------------------|-----------------------------------|----------------------------------------|
------------------------------|------------------------------|----------15------------15----|----------15------------15----|--x-x-x-x-15----x-x-x-x-15----|--x-x-x-x-15----x-x-x-x-15----|--x-x-x-x-15----x-x-x-x-15----|--x-x-x-x-15----x-x-x-x-15----|------------------------------|------------------------------|------------------------------|------------------------------|
----------------------------------|----------------------------------|----15----15--------15----15------|----15----15--------15----15------|--x-15--x-15--x-x-x-15--x-15--x-x-|--x-15--x-15--x-x-x-15--x-15--x-x-|--x-15--x-15--x-x-x-15--x-15--x-x-|--x-15--x-15--x-x-x-15--x-15--x-x-|----------------------------------|----------------------------------|----------------------------------|----------------------------------|
--------------------|------------------|------------------|------------------|--------------------|------------------|------------------|------------------|--------------------|------------------|------------------|------------------|--------------------|------------------|------------------|------------------|--------------------|------------------|------------------|------------------|--15/---------------|------------------|------------------|------------------|
------------------|------------------|------------------|------------------|------------------|------------------|------------------|------------------|------------------|------------------|------------------|------------------|------------------|------------------|------------------|------------------|------------------|------------------|
-----------------------|-------------------------|------------------------|-----------------------|-------------------------|------------------------|-----------------------|--3----------3h5---------|--3----------5b-5--3b---|----------5----7-------|------3--5--------3--5---|------3--5--------------|-----------------------|-------------------------|------------------------|------------0------0-0-|-------------------------|------------------------|
------------------------|---------------------------|-------------------------|------------------------|---------------------------|-------------------------|--3----------5b-3--5~---|-------3h-4----------------|-------3--3b3--5b---5~---|------3--5--------------|--3h5-------5h0-3--3--3----|--3h5--------------------|------------------------|---------------------------|-------------------------|------------------------|---------------------------|-------------------------|
------------------------15--------|--------------------------------|--------------------18b----15-18~-|----18~-18~-18------18----18----|-----5~5r-17b17h15----------------|------------17b-----17b---17b---|----------------------------------|--------------------------------|----------------------------------|--------------------------------|----------------------------------|--------------------------------|
----------------------------|--18----18------------------|--17b---17b---------15------|--------------------15------|----------------------------|----------------------------|
--18h15h13----------------------------------------------------------|-----------20h18h15----------------20h18h15h13h18h15h13----------20h|--------------------19h17h15-17h15----------------------18h17h15----|--------------------------------------------------------------------|--------------------------------------------------------------------|--------------------------------------------------------------------|
--------20h18h15-------20h18h15-------------------------18h20h18h15----|--18h15----------18h15----------18-20h18h20h18h17-------------------18-|--------------------------------------------------17h15h---------------|-----------------------------------------------------------------------|-----------------------------------------------------------------------|-----------------------------------------------------------------------|
-----------18-18-18---18---18--|---18---18~------------|---0-10b---18-18-18b--18b--18b-|---18b--18----0--------|---0---------------------------|--------------0--------|-------------------------------|-----------------------|-------------------------------|-----------------------|-------------------------------|-----------------------|
-------------------------------------|-----------------------|-------------------------------------|-----------------------|--15h17h15-0---15h17h15-0---17h-15h0-|----17h15h0------------|-------------------------------------|-----------------------|-------------------------------------|-----------------------|-------------------------------------|-----------------------|
-------------------------------|--18b---20b-20b-20b---------|-----18b--18b-18b----18r-18h15-|----------------------------|--0----------------------------|--------------------------0-|-------------------------------|------------------------0---|-------------------------------|----------------------------|-------------------------------|----------------------------|
--20~---------------|------------------|--20~---------------|--------------------|------------------|--------------------|--------------------|------------------|--------------------|--------------------|------------------|--------------------|--------------------|------------------|--------------------|--------------------|------------------|--------------------|
--20----------------------|----------------------------------|--------------------------|------------11--------------11----|---------15-13-15/--------|------------10--------------10----|---------15-15-15/--------|----------------------------------|--------------------------|--10-10-x-x-------10-10-x-x-------|--------------------------|----------------------------------|
-----------------------------|----------------------------------|------------11---------------|------------11--------------11----|------------10---------------|------------10--------------10----|-----------------------------|----------------------------------|--10-10-x-x--------7--8--9---|--10-10-x-x-------10-10-x-x-------|-----------------------------|----------------------------------|
----------------------------|----------------------------------|----------------------------|------------11--------------11----|----5----5--3---------------|------------10--------------10----|--5----5--------------------|----------------------------------|-----------------3----3--1--|--10-10-x-x-------10-10-x-x-------|---------------3----3-------|----------------------------------|
-----------------------------|----------------------------------|------------11---------------|------------11--------------11----|------------10---------------|------------10--------------10----|-----------------------------|----------------------------------|--10-10-x-x--------7--8--9---|--10-10-x-x-------10-10-x-x-------|-----------------------------|----------------------------------|
----------------------------|----------------------------------|----------------------------|------------11--------------11----|----5----5--3---------------|------------10--------------10----|--5----5--------------------|----------------------------------|-----------------3----3--1--|--10-10-x-x-------10-10-x-x-------|---------------3----3-------|----------------------------------|
-----------------------------|----------------------------------|------------11---------------|------------11--------------11----|------------10---------------|------------10--------------10----|-----------------------------|----------------------------------|--10-10-x-x--------7--8--9---|--10-10-x-x-------10-10-x-x-------|-----------------------------|----------------------------------|
----------------------------|-------------------------------------|----------------------------|--15-15----15--------15-15---15------|----5----5--3---------------|--15-15--x-15--x-x-x-15-15-x-15--x-x-|--5----5--------------------|--15-15--x-15--x-x-x-15-15-x-15--x-x-|-----------------3----3--1--|-------------------------------------|---------------3----3-------|-------------------------------------|
--------------------------------------|-------------------------------------|----15----15--------15----15-15-15-15-|--15-15----15--------15-15---15------|--x-15--x-15--x-x-x-15--x-15-15-15-15-|--15-15--x-15--x-x-x-15-15-x-15--x-x-|--x-15--x-15--x-x-x-15--x-15-15-15-15-|--15-15--x-15--x-x-x-15-15-x-15--x-x-|--------------------------------------|-------------------------------------|--------------------------------------|-------------------------------------|
----------------------------|----------------------------------|----------------------------|----15----15--------15----15------|----5----5--3---------------|--x-15--x-15--x-x-x-15--x-15--x-x-|--5----5--------------------|--x-15--x-15--x-x-x-15--x-15--x-x-|-----------------3----3--1--|----------------------------------|---------------3----3-------|----------------------------------|
--------------------------------------|-------------------------------------|----15----15--------15----15-15-15-15-|--15-15----15--------15-15---15------|--x-15--x-15--x-x-x-15--x-15-15-15-15-|--15-15--x-15--x-x-x-15-15-x-15--x-x-|--x-15--x-15--x-x-x-15--x-15-15-15-15-|--15-15--x-15--x-x-x-15-15-x-15--x-x-|--------------------------------------|-------------------------------------|--------------------------------------|-------------------------------------|
----8----8--6---------------|-----------------------------------|--8----8--------------------|----------15--------15-----15------|-----------------5----5--3--|--x-x-x-x-15--x-x-x-15-x-x-15--x-x-|---------------5----5-------|--x-x-x-x-15--x-x-x-15-x-x-15--x-x-|----------------------------|-----------------------------------|----------------------------|-----------------------------------|
----------------------------------------|------------------------------|----15-----15-15-15----15-----15-15-15--|----------15------------15----|--x-15-x-x-15-15-15--x-15-x-x-15-15-15--|--x-x-x-x-15----x-x-x-x-15----|--x-15-x-x-15-15-15--x-15-x-x-15-15-15--|--x-x-x-x-15----x-x-x-x-15----|----------------------------------------|------------------------------|----------------------------------------|------------------------------|
----------------------------|----------------------------------|----------15------18~-------|----15----15--------15----15------|--x-x-x-x-15----------------|--x-15--x-15--x-x-x-15--x-15--x-x-|--x-x-x-x-----17------------|--x-15--x-15--x-x-x-15--x-15--x-x-|----------------------------|----------------------------------|----------------------------|----------------------------------|
----------------------------------|----------------------------------------|----15----15--------15----15------|----------------------------------15----|--x-15--x-15--x-x-x-15--x-15--x-x-|----------------------------------15----|--x-15--x-15--x-x-x-15--x-15--x-x-|--17h15-15-15-x-x-17h15-15-15-x-x-------|----------------------------------|----------------------------------------|----------------------------------|----------------------------------------|
----------------------------------------|----------------------------------17----|----------------------------------17----|--17h15-15-15-x-x-17h15-15-15-x-x-------|----------------------------------------|----------------------------------------|
--------------------------------------------|--------------------------------------------|--------------------------------------------|--17h15-15-15-x-x-17h15-15-15-x-x-17h15-x-x-|--------------------------------------------|--------------------------------------------|
-----------------------------------------|-------------------||-----------------------------------------|-------------------||--15-15-14-14-13-13-12-12-11-11----------|-------------------||--x--x--x--x--x--x--x--x--x--x--8--7--6--|--5/---------------||--13-13-12-12-11-11-10-10-9--9--x--x--x--|--5/---------------||--------------------------------6--5--4--|--3/---------------||
Guitar 2 Whole Song
E||--------------------------|-------------------------|B||--------------------------|-------------------------|G||--------------------------|-------------------------|D||--5-5-5-5-----5-5-5-5-----|-------------------------|A||--------------------------|-------------------------|E||--------------------------|--3-3-3-3------0--1--2---|
--------------------------|----------------------------|--------------------------|----------------------------|--------------------------|----5----5--3---------------|--5-5-5-5-----5-5-5-5-----|--5----5--------------------|--------------------------|-----------------3----3--1--|--------------------------|---------------3----3-------|
--------------------------|-------------------------|--------------------------|--------------------------|-------------------------|--------------------------|--------------------------|-------------------------|--------------------------|--5-5-5-5-----5-5-5-5-----|-------------------------|--5-5-5-5-----5-5-5-5-----|--------------------------|-------------------------|--------------------------|--------------------------|--3-3-3-3------0--1--2---|--------------------------|
----------------------------|--------------------------|----------------------------|--------------------------|----5----5--3---------------|--------------------------|--5----5--------------------|--5-5-5-5-----5-5-5-5-----|-----------------3----3--1--|--------------------------|---------------3----3-------|--------------------------|
-------------------------|--------------------------|-------------------------|--------------------------|-------------------------|--------------------------|-------------------------|--5-5-5-5-----5-5-5-5-----|-------------------------|--------------------------|--3-3-3-3------0--1--2---|--------------------------|
----------------------------|------------------|------------------|----------------------------|------------------|------------------|----5----5--3---------------|------------------|------------------|--5----5--------------------|------------------|------------------|-----------------3----3--1--|------------------|------------------|---------------3----3-------|------------------|------------------|
------------------|----------------------------|------------------|------------------|----------------------------|------------------|------------------|----5----5--3---------------|------------------|------------------|--5----5--------------------|------------------|------------------|-----------------3----3--1--|------------------|------------------|---------------3----3-------|------------------|
------------------|------------------|----------------------------|------------------|------------------|----------------------------|------------------|------------------|----5----5--3---------------|------------------|------------------|--5----5--------------------|------------------|------------------|-----------------3----3--1--|------------------|------------------|---------------3----3-------|
----------------------------------|--------------------------|----------------------------------|--------------------------|----------------------------------|--------------------------|----------------------------------|--------------------------|--10--10--10--10--10--10--10--10--|--8--8--8--8--8--8--8--8--|--8---8---8---8---8---8---8---8---|--6--6--6--6--5--5--5--5--|
-------------------------|-----------------------------|-------------------------|-----------------------------|-------------------------|-----------------------------|-------------------------|-----------------------------|-------1-----------1-----|-------1--------------1------|--3-------3--3---3----3--|--3------3-3--1-1-3-3---3-3--|
----------------------------------|--------------------------|----------------------------------|--------------------------|----------------------------------|--------------------------|----------------------------------|--------------------------|--10--10--10--10--10--10--10--10--|--8--8--8--8--8--8--8--8--|--8---8---8---8---8---8---8---8---|--6--6--6--6--5--5--5--5--|
--------------------------|-------------------------|--------------------------|--------------------------|-------------------------|--------------------------|--------------------------|-------------------------|--------------------------|--5-5-5-5-----5-5-5-5-----|-------------------------|--5-5-5-5-----5-5-5-5-----|--------------------------|-------------------------|--------------------------|--------------------------|--3-3-3-3------0--1--2---|--------------------------|
----------------------------|------------------|------------------|----------------------------|------------------|------------------|----5----5--3---------------|------------------|------------------|--5----5--------------------|------------------|------------------|-----------------3----3--1--|------------------|------------------|---------------3----3-------|------------------|------------------|
------------------|----------------------------|------------------|------------------|----------------------------|------------------|------------------|----5----5--3---------------|------------------|------------------|--5----5--------------------|------------------|------------------|-----------------3----3--1--|------------------|------------------|---------------3----3-------|------------------|
------------------|------------------|----------------------------|------------------|------------------|----------------------------|------------------|------------------|----5----5--3---------------|------------------|------------------|--5----5--------------------|------------------|------------------|-----------------3----3--1--|------------------|------------------|---------------3----3-------|
----------------------------------|--------------------------|----------------------------------|--------------------------|----------------------------------|--------------------------|----------------------------------|--------------------------|--10--10--10--10--10--10--10--10--|--8--8--8--8--8--8--8--8--|--8---8---8---8---8---8---8---8---|--6--6--6--6--5--5--5--5--|
-------------------------|-----------------------------|-------------------------|-----------------------------|-------------------------|-----------------------------|-------------------------|-----------------------------|-------1-----------1-----|-------1--------------1------|--3-------3--3---3----3--|--3------3-3--1-1-3-3---3-3--|
----------------------------------|-------------------|------------------|----------------------------------|-------------------|------------------|----------------------------------|-------------------|------------------|----------------------------------|-------------------|------------------|--10--10--10--10--10--10--10--10--|--5----------------|------------------|--8---8---8---8---8---8---8---8---|--3----------------|------------------|
------------------|------------------|------------------|------------------|------------------|------------------|------------------|------------------|------------------|------------------|------------------|------------------|------------------|------------------|------------------|------------------|------------------|------------------|------------------|------------------|------------------|------------------|------------------|------------------|
------------------|------------------|------------------|------------------|------------------|------------------|------------------|------------------|------------------|------------------|------------------|------------------|------------------|------------------|------------------|------------------|------------------|------------------|------------------|------------------|------------------|------------------|------------------|------------------|
------------------|------------------|------------------|------------------|------------------|------------------|------------------|------------------|------------------|------------------|------------------|------------------|------------------|------------------|------------------|------------------|------------------|------------------|------------------|------------------|------------------|------------------|------------------|------------------|
------------------|------------------|------------------|------------------|------------------|------------------|------------------|------------------|------------------|------------------|------------------|------------------|------------------|------------------|------------------|------------------|------------------|------------------|------------------|------------------|------------------|------------------|------------------|------------------|
------------------|------------------|------------------|------------------|------------------|------------------|------------------|------------------|------------------|------------------|------------------|------------------|------------------|------------------|------------------|------------------|------------------|------------------|------------------|------------------|------------------|------------------|------------------|------------------|
------------------|------------------|------------------|------------------|------------------|------------------|------------------|------------------|------------------|------------------|------------------|------------------|------------------|------------------|------------------|------------------|------------------|------------------|
--------------------------|--------------------------|--------------------------|--------------------------|--------------------------|--7--7--7--7--7--7--7--7--|--7--7--7--7--7--7--7--7--|--7--7--7--7--7--7--7--7--|--5--5--5--5--5--5--5--5--|--5--5--5--5--5--5--5--5--|--------------------------|--------------------------|
--10--10--10--10--10~-10~-10~-10~-|------------------|--10--10--10--10--10~-10~-10~-10~-|------------------|----------------------------------|------------------|----------------------------------|------------------|----------------------------------|------------------|----------------------------------|------------------|
--------------------------|-------------------------|--------------------------|--------------------------|-------------------------|--------------------------|--------------------------|-------------------------|--------------------------|--5-5-5-5-----5-5-5-5-----|-------------------------|--5-5-5-5-----5-5-5-5-----|--------------------------|-------------------------|--------------------------|--------------------------|--3-3-3-3------0--1--2---|--------------------------|
----3----3------------------|--------------------------|--3----3----6---------------|--------------------------|----------------------------|--------------------------|-----------------5----5--3--|--5-5-5-5-----5-5-5-5-----|---------------5----5-------|--------------------------|----------------------------|--------------------------|
-------------------------|--------------------------|-------------------------|--------------------------|-------------------------|--------------------------|-------------------------|--5-5-5-5-----5-5-5-5-----|-------------------------|--------------------------|--3-3-3-3------0--1--2---|--------------------------|
----------------------------|--------------------------|----------------------------|--------------------------|----5----5--3---------------|--------------------------|--5----5--------------------|--5-5-5-5-----5-5-5-5-----|-----------------3----3--1--|--------------------------|---------------3----3-------|--------------------------|
-------------------------|--------------------------|-------------------------|--------------------------|-------------------------|--------------------------|-------------------------|--5-5-5-5-----5-5-5-5-----|-------------------------|--------------------------|--3-3-3-3------0--1--2---|--------------------------|
----------------------------|------------------|------------------|----------------------------|------------------|------------------|----5----5--3---------------|------------------|------------------|--5----5--------------------|------------------|------------------|-----------------3----3--1--|------------------|------------------|---------------3----3-------|------------------|------------------|
------------------|----------------------------|------------------|------------------|----------------------------|------------------|------------------|----5----5--3---------------|------------------|------------------|--5----5--------------------|------------------|------------------|-----------------3----3--1--|------------------|------------------|---------------3----3-------|------------------|
------------------|------------------|----------------------------|------------------|------------------|----------------------------|------------------|------------------|----5----5--3---------------|------------------|------------------|--5----5--------------------|------------------|------------------|-----------------3----3--1--|------------------|------------------|---------------3----3-------|
----------------------------------|--------------------------|----------------------------------|--------------------------|----------------------------------|--------------------------|----------------------------------|--------------------------|--10--10--10--10--10--10--10--10--|--8--8--8--8--8--8--8--8--|--8---8---8---8---8---8---8---8---|--6--6--6--6--5--5--5--5--|
-------------------------|-----------------------------|-------------------------|-----------------------------|-------------------------|-----------------------------|-------------------------|-----------------------------|-------1-----------1-----|-------1--------------1------|--3-------3--3---3----3--|--3------3-3--1-1-3-3---3-3--|
----------------------------------|--------------------------|----------------------------------|--------------------------|----------------------------------|--------------------------|----------------------------------|--------------------------|--10--10--10--10--10--10--10--10--|--8--8--8--8--8--8--8--8--|--8---8---8---8---8---8---8---8---|--6--6--6--6--5--5--5--5--|
----------------------------------------|----------------------------------15----|----------------------------------15----|--17h15-15-15-x-x-17h15-15-15-x-x-------|----------------------------------------|----------------------------------------|
----------------------------------------|----------------------------------17----|----------------------------------17----|--17h15-15-15-x-x-17h15-15-15-x-x-------|----------------------------------------|----------------------------------------|
--------------------------------------------|--------------------------------------------|--------------------------------------------|--17h15-15-15-x-x-17h15-15-15-x-x-17h15-x-x-|--------------------------------------------|--------------------------------------------|
-----------------------------------------|-------------------||-----------------------------------------|-------------------||--15-15-14-14-13-13-12-12-11-11----------|-------------------||--x--x--x--x--x--x--x--x--x--x--8--7--6--|--5/---------------||--13-13-12-12-11-11-10-10-9--9--x--x--x--|--5/---------------||--------------------------------6--5--4--|--3/---------------||
Please rate this tab:
x1.0