Red Hot Chili Peppers - The Adventures Of Rain Dance Maggie tab version 1

	*THIS TAB SHOULD HELP GET YOU STARTED WITH THE SONG - THE REST IS ON ITS WAY*

Red Hot Chili Peppers (RHCP) - The Adventures of Rain Dance Maggie

LEAD MELODY
*NOTE* - The melody in each chorus are variations of each other. They are simple to 
figure out from this.

LEGEND
v  - Vibrato
br - Bend Release
b  - Bend
/  - Slide Up
\  - Slide Down

*NOTE* - When playing the verse you can play either:


*VERSE*|-----------------------------------------||-----------------------------------------||--9v----9v---------9v----9v----9v--------||--9v----9v---------9v----9v----9v--------||--7v----7v--7br9v--7v----7v----7v--7br9--||-----------------------------------------|
|-----------------------------------------||-----------------------------------------||--9v-------------9v----------------------||--9v-------5-5---9v--------7h9-xx-5-5----||--7v-7br9v-------7v--7br9v---------------||-----------------------------------------|
|-----------------------------------------||-----------------------------------------||---9v----9v---------9v----9v-------------||---9v----9v---------9v----9v-x-----------||-7-7v----7v--7br9v--7v----7v-x--7br9-----||-----------------------------x-----------|
*CHORUS*|--33333333------------||--33333333------------||--44444444-99999999---| (X2) Then|--55555555-99999999---||--55555555-77777777---||--33333333------------|
|---------------------------------------||---------------------------------------||--55555555-44444444----------77777777--||--55555555-44444444-77777777-77777777--||--33333333-22222222-77777777-55555555--||--------------------55555555-----------|
*CHORUS LEAD MELODY*|--------------------------------------------------||-----------------------------15-------------------||--12~-14br15-12-------12--14b15--14p12------------||-----------------14v-------------------14v--------||--------------------------------------------------||--------------------------------------------------|
|----------------------15--------------------------||--15br17--10-13v--15br17--13-12-------------------||--------------------------------------------------||--------------------------------------------------||--------------------------------------------------||--------------------------------------------------|
|--15br17--12--------------------------------------||-------------15bv---------------------------------||--------------------14br16-12bv-------------------||--------------------------------------------------||--------------------------------------------------||--------------------------------------------------|
*VERSE*|--------------------------------------------------||--------------------------------------------------||--9v----9v---------------9v----9v-----------------||--9v----9v--------xx-7h9-9v----9v--------xx-7h9---||--7v----7v--7br9v--------7v----7v--7br9v----------||--------------------------------------------------|
|--------------------------------------------------||--------------------------------------------------||--9v----9v----------------------------------------||--9v----9v--------5-x-5---------------------------||--7v----7v--7br9v---------------------------------||--------------------------------------------------|
*CHORUS*RHYTHM - GUITAR 2|--33333333------------||--33333333------------||--44444444-99999999---| (X2) Then|--55555555-99999999---||--55555555-77777777---||--33333333------------|
|---------------------------------------||---------------------------------------||--55555555-44444444----------77777777--||--55555555-44444444-77777777-77777777--||--33333333-22222222-77777777-55555555--||--------------------55555555-----------|
*CHORUS LEAD MELODY* - GUITAR 1|--------------------------------------------------||-----------------------------15-------------------||--12~-14br15-12-------12--14b15--14p12------------||-----------------14v-------------------14v--------||--------------------------------------------------||--------------------------------------------------|
|----------------------15--------------------------||--15br17--10-13v--15br17--13-12-------------------||--------------------------------------------------||--------------------------------------------------||--------------------------------------------------||--------------------------------------------------|
|--15br17--12--------------------------------------||-------------15bv---------------------------------||--------------------14br16-12bv-------------------||--------------------------------------------------||--------------------------------------------------||--------------------------------------------------|
Tap to rate this tab
 
# A B C D E F G H I J K L M N O P Q R S T U V W X Y Z