Red Hot Chili Peppers - Victorian Machinery tab

Great funky new b-side from I'm with you.It wasn't tabbed out,so I decided to do it

The rest is coming soon.Hope it helps.

Intro:no guitar at the first part but then comes this:

Gtr.1 distortede|-----------------------------------------------------------|B|-----------------------------------------------------------|G|-7--7--7-7-12-9/10-10-10---10--10-10-10--13-13/12--12-12---|x2D|-7--7--7-7-x--x----x--x----x---x--x--x---x--x--x---x--x----|A|-5--5--5-5-10-7/8--8--8----8---8--8--8---11-11/10--10-10---|E|-----------------------------------------------------------|
Verse:Gtr.1 distorted
|-----------------------------------------------------------||-----------------------------------------------------------||-7--7--7-7-12-9/10-10-10---10--10-10-10--13-13/12--12-12---|x4|-7--7--7-7-x--x----x--x----x---x--x--x---x--x--x---x--x----||-5--5--5-5-10-7/8--8--8----8---8--8--8---11-11/10--10-10---||-----------------------------------------------------------|
Chorus: Gtr.2-clean
|---------------------------------------------------13-------||-------13-------13-----------13-------13--------15----15----||----14-------14----14-----12-------12----12--14----------14-||-15-------15-----------14-------14--------------------------||------------------------------------------------------------||------------------------------------------------------------|
|--13h15-13-12------------------||--------------15-13------------||---------------------14-12/10--||-------------------------------||-------------------------------||-------------------------------|
|----------------------------------------------||-12-------12-------12--11-------11-------11---||----10-------10-----------10-------10---------||-------10-------10-----------10-------10------||----------------------------------------------||----------------------------------------------|
|------------------------------------------------||-------10-------10-------10------10--------10---||----10-------10-------10-------10-------10------||-12-------12-------12-------12-------12---------||------------------------------------------------||------------------------------------------------|
|---------------------------------------------------13-------||-------13-------13-----------13-------13--------15----15----||----14-------14----14-----12-------12----12--14----------14-||-15-------15-----------14-------14--------------------------||------------------------------------------------------------||------------------------------------------------------------|
|--13h15-13-12------------------||--------------15-13------------||---------------------14-12/10--||-------------------------------||-------------------------------||-------------------------------|
|----------------------------------------------||-12-------12-------12--11-------11-------11---||----10-------10-----------10-------10---------||-------10-------10-----------10-------10------||----------------------------------------------||----------------------------------------------|
|------------------------------------------------||-------10-------10-------10------10--------10---||----10-------10-------10-------10-------10------||-12-------12-------12-------12-------12---------||------------------------------------------------||------------------------------------------------|
Tap to rate this tab
 
# A B C D E F G H I J K L M N O P Q R S T U V W X Y Z