Reel Big Fish - Down In Flames tab

-------------------------------------------------------------------------------
                         DOWN IN FLAMES - Reel Big Fish
-------------------------------------------------------------------------------

Tabbed by Brian Becker

INTRO CHORDS (2x) |---------------------------------------| |---------------------------------------| |--7-7-7--4-4-4--5-5-5------------------| |--7-7-7--4-4-4--5-5-5--5-5-5-----------| |--5-5-5--2-2-2--3-3-3--5-5-5------3h5--| |-----------------------3-3-3--3h5------|
INTRO SOLO |----7--5h7p5------------5---------------5------| |-------------8--7-8-7-8---7-8---7-8-7-8---7----| |--7-----------------------------------------7--| |-----------------------------------------------| |-----------------------------------------------| |-----------------------------------------------|
|------------------------------------------------------------| |------------------------------------------------------------| |------------4-----------------------------------------------| |--5/7-5-4-----7h9p7---------------7-----------------7-------| |----------5---------10--9-10-9-10---9-10--9-10-9-10---7-5---| |------------------------------------------------------------|
|-------------| |-------------| |-------------| |-------------| PLAY INTRO CHORDS TWICE |-------------| |--3/5-3-2p0--|
VERSE 1 (Ska) D G B A You don't know me, but here I am in your living room. D G B A You don't own me, but you paid and that means a lot to you. (Distort) D G B A You never listen but I know that's what you think that you D G B A do. PRE-CHORUS (Distort) G E D A G B Everybody wants a change but this time it'll be the same. Watch us go down in flames. CHORUS (Ska) D B C G D It's alright, it's okay, it was gonna happen anyway. B C We had a chance, we made our point, your not gonna take that. Away. PLAY INTRO SOLO OVER VERSE VERSE 2 (Ska-Same Chords) Radio, commercials, Tv Shows, and front page ads. Photos and interviews, well, they'll make sure it's the latest fad. Pay attention, cuz you know you'll have to pay either way. PRE-CHORUS (Same Chords) They tell you that it's the new thing, but we know that it hasn't changed. Watch us go down in flames. CHORUS (Same chords and words)
BRIDGE |--------------2------------------| |--------2-3-5---5-3-2-------2-3--| |--4-3-4---------------4-3-4------| |---------------------------------| |---------------------------------| |---------------------------------|
MUTE THE NEXT PART (twice) |------------------------------------| |------------------------------------| |------------------------------------| |----------9-7-----------------------| |--7-7-7-7-----10/-------------7-9/--| |-------------------7-7-7-7-10-------|
|-----------------------------------------| |-----------------------------------------| |-----------------------------------------| |-----------------------------------------| |----------------9-9-10-10-9-9-7-7--------| |--7-7-7-7-10-10-------------------10-10--|
Do When this blows over, and the mainstream coughs Do up another show will you... Let us back in your underground, well I guess that's G "no" and it's just as well 'cause. VERSE 3 (play distorted part) You never supported us, all you wanted was to see us fail. PRE-CHORUS (play distorted part) They tell me, that it's the new thing, so I better get out of the way. Watch us go down in flames. CHORUS (same) PLAY INTRO CHORDS End on the D Octave
OUTRO Rhythm |------------------------------------| |------------------------------------| |------7--------4-------5------------| |----7---7----4---4---5--------------| |--5--------2-------3-------------5--| |-------------------------3-3-5h7----|
OUTRO Solo |----2-5-7-5--2------2----------2--5-7-5----| |--3---------------3---3-5-3--5----5-----7--| |----------------------------------5--------| |-------------------------------------------| |-------------------------------------------| |-------------------------------------------|
|-------------------------------10/12-10--| |--5-7h5---5-3-3/5-3---10/12-10-----------| |--------7--------------------------------| |-----------------------------------------| |-----------------------------------------| |-----------------------------------------|
FOR THESE LAST NOTES, PLACE MORE EMPHASIS ON THE LOWER NOTE, AND JUST KINDA BRUSH THE HIGHER ONE. YOU WANT TO GET A TWO NOTE PITCH TO SOUND LIKE ONE.
|--14-14-14--16----18-16-14-14--| |--15-15-15--17-17-19-17-15-15--| |---------------17--------------| |-------------------------------| |-------------------------------| |-------------------------------|
|--14-14-14--16----18-16-14-14--| |--15-15-15--17-17-19-17-15-15--| |---------------17--------------| |-------------------------------| |-------------------------------| |-------------------------------|
|--14-14-14------| |--15-15-15-17~--| |-----------17~--| |----------------| |----------------| |----------------|
Tap to rate this tab
 
# A B C D E F G H I J K L M N O P Q R S T U V W X Y Z