Reel Big Fish – 3 Packs Of Showlaces And A Bag Of Cashews tab

h=hammer on
b=bend
.=palm mute
Ian McSherry

Intro

|----------------------------|-----------------------------||----------------------------|-----------------------------||----------------------------|-----------------------------||----------------------------|-----5-----------------------||-----7----------------------|---3---3---------------------||---5---5--------------------|-----------------------------| . . . . .
|----------------------------|-----------------------------||----------------------------|-----------------------------||----------------------------|-----------------------------||----------------------------|-----7-----------------------||-----5----------------------|---5---5---------------------||---3---3--------------------|-----------------------------| . . . . .
chorus
|----------------------------|-----------------------------||----------------------------|-----------------------------||----------------------------|---55555555------------------||---77777777-----------------|---55555555------------------||---77777777-----------------|---33333333------------------||---55555555-----------------|-----------------------------|
(x4)|----------------------------|-----------------------------||----------------------------|-----------------------------||----------------------------|---------66--77--9-----------||---555555555----------------|---7777--xx--xx--x-----------||---555555555----------------|---5555--44--55--7-----------||---333333333----------------|-----------------------------|
Bridge
|----------------------------|-----------------------------||----------------------------|-----------------------------||----------------------------|---55555555------------------||---77777777-----------------|---55555555------------------||---77777777-----------------|---33333333------------------||---55555555-----------------|-----------------------------|
.. .. ... . (x2)|----------------------------|-----------------------------||----------------------------|-----------------------------||----------------------------|---77777777------------------||---55555555-----------------|---77777777------------------||---55555555-----------------|---55555555------------------||---33333333-----------------|-----------------------------| .. .. .. ..
Verse
|----------------------------|-----------------------------||----------------------------|---444444--------------------||---666666-------------------|---555555--------------------||---777777-------------------|---555555--------------------||---777777-------------------|---333333--------------------||---555555-------------------|-----------------------------|
(x4)|----------------------------|-----------------------------||----------------------------|---666666--------------------||---444444-------------------|---777777--------------------||---555555-------------------|---777777--------------------||---555555-------------------|---555555--------------------||---333333-------------------|-----------------------------|
Solo
|-------12--14--14b--12--12--|-------12------12--12--------||--12h14---------------14----|--12h14------12----12--------||----------------------------|-----------14------13--------||----------------------------|-----------------------------||----------------------------|-----------------------------||----------------------------|-----------------------------|
intro chorus bridge verse chorus solo verse chorus
Please rate this tab:
x1.0