Refused - Shape Of Punk To Come tab

Artist: Refused
Song: Shape of Punk to Come
Album: Shape of Punk to Come: A Chimerical Bombination in Twelve Bursts

Bass enters at 0:15---------------------|---------------------|----045-------5------|x8-202---02-0235-00----|
0:40----------------------------|----------------------------|-2---2---2222-3---5-555555--|x1---0---0--------0-----------|
0:46---------------------|---------------------|----045-------5------|x4-202---02-0235-00----|
_________________ __________________________0:59 |1.,2.,3. |4.--------------------|------------------|--------------------------|--------------------|------------------|--------------------------|--0-0-0-----0-0--0--|-7777777-7777777--|-7777777-5555555----------|x1-3-3-3-3---2-2-02---|------------------|----------------7777777---|
1:27---------------------|---------------------|----045-------5------|x4-202---02-0235-00----|
1:40--------------------------------|--------------------------------|--------------------------------|x12~------2~------3~------2~------|
1:51-----------------|-----------------|---2-------------|x4-02-XX002XXXXXXX-|
2:04-----------------|-----------------|---2-------------|x4-02---002--------|
2:17 PAUSE
2:23-----------------|---2-------------|-02---002--------|x2-----------------|
2:29-------------------|---------------2---|-025242--025242-0--|x8-------02----------|
2:54-----------------------------------------------------------|-----------------------------------------------------------|-2---2---2222-2---2---2222--3---3---3333-5555555555555555--|x1---0---0--------0---0---------0---0------------------------|
3:06 PAUSE
3:13---------------------|---------------------|----045-------5------|x4-202---02-0235-00----|
_________________ __________________________3:25 |1.,2.,3. |4.--------------------|------------------|--------------------------|--------------------|------------------|--------------------------|--0-0-0-----0-0--0--|-7777777-7777777--|-7777777-5555555----------|x1-3-3-3-3---2-2-02---|------------------|----------------7777777---|
3:53-----------------|-----------------|---2-------------|x12-02-XX002XXXXXXX-|
4:29 END WITH GUITAR FEEDBACK AND FLANGER thats the whole song guys pretty dope one too check these guys out ....seriously they're hella good Please rate! XD
Tap to rate this tab
 
# A B C D E F G H I J K L M N O P Q R S T U V W X Y Z