Rehab - Sittin In A Bar tab

-----------------------------------------------------------------------
			Rehab - Sittin' at a Bar
-----------------------------------------------------------------------
Tabbed by: Collin Goodrum
Email: Goodrum04@aol.com

Tuning: Standard Tuning, Capo II Fret

The fret numbers are relative to the capo, even the chords

---------------------------
CHORDS - If you listen closely to the song, these chords
sound very similar to, if not exactly, what is played... however,
different chords could be used


2	x	0	0
3 	3	5	2
2	2	4	2
0	0	2	2
x	x	x	0
x	x	x	0

D	D5	E5	A



|--------------------------------------------------------3-----3-||--------------------------------------------------------5-3-5-3-||-----2h4--2--2h4--2--4--6--4--2--2h4--2--2h4--2---2-4-4-0-0-0-0-||-0-4-0----0--0----0--0--0--0--0--0----0--0----0-4---0-0---------||----------------------------------------------------------------||----------------------------------------------------------------|
|---------------------------------||---------------------------------||---2--------2--------------------||------2--2-----2--2h4p2--2--0----||-4----4--4-----------------------||---------------------------------| Bartender
|------------------------------------------------------------||------------------------------------------------------------||-----2------2------2------2-----4------2-------2------2-----||---4------4--4---4------4---4------------4--------------4-2-||-5------5------4------4-------5---5--5-----5-4---4--4-------||------------------------------------------------------------| I really... when I got home..
|------------------------------------------------------------||------------------------------------------------------------||-----2------2------2------2-----4------2-------2------2-----||---4------4--4---4------4---4------------4--------------4-2-||-5------5------4------4-------5---5--5-----5-4---4--4-------||------------------------------------------------------------| trippin on... shit...
|------------------------------------------------------------||------------------------------------------------------------||-----2------2------2------2-----4------2-------2------2-----||---4------4--4---4------4---4------------4--------------4-2-||-5------5------4------4-------5---5--5-----5-4---4--4-------||------------------------------------------------------------| in my drunken stupor... sittin here...
D I'm sittin' at a bar on the inside A Waitin' for my ride on the outside D5 She broke my heart, in the trailer park E5 So I jacked the keys to her fuckin' car A crashed that piece of shit an' then stepped away
|--------------------------------------------------------3-----3-||--------------------------------------------------------5-3-5-3-||-----2h4--2--2h4--2--4--6--4--2--2h4--2--2h4--2---2-4-4-0-0-0-0-||-0-4-0----0--0----0--0--0--0--0--0----0--0----0-4---0-0---------||----------------------------------------------------------------||----------------------------------------------------------------|
|---------------------------------||---------------------------------||---2--------2--------------------||------2--2-----2--2h4p2--2--0----||-4----4--4-----------------------||---------------------------------|
|------------------------------------------------------------||------------------------------------------------------------||-----2------2------2------2-----4------2-------2------2-----||---4------4--4---4------4---4------------4--------------4-2-||-5------5------4------4-------5---5--5-----5-4---4--4-------||------------------------------------------------------------| I'll prolly get... know the sun is...
|--------------------------------------------------------------||--------------------------------------------------------------||-----2------2------2------2-----4------4------2-----2---------||---4------4--4---4------4---4-----4------4------2-----2h4p2-0-||-5------5------4------4-------5-----5------5-4----4-----------||--------------------------------------------------------------| tryina drown... thing that I love...
D She got me sittin' at a bar on the inside A Waitin for my ride on the outside D5 She broke my heart, in the trailer park E5 So I jacked the keys to her fuckin' car A crashed that piece of shit an' then stepped away
This is where the rap part begins, I don't play it though|--------------------------------------------------------3-----3-||--------------------------------------------------------5-3-5-3-||-----2h4--2--2h4--2--4--6--4--2--2h4--2--2h4--2---2-4-4-0-0-0-0-||-0-4-0----0--0----0--0--0--0--0--0----0--0----0-4---0-0---------||----------------------------------------------------------------||----------------------------------------------------------------|
|---------------------------------||---------------------------------||---2--------2--------------------||------2--2-----2--2h4p2--2--0----||-4----4--4-----------------------||---------------------------------|
|--------------------------------------------------------3-----3-||--------------------------------------------------------5-3-5-3-||-----2h4--2--2h4--2--4--6--4--2--2h4--2--2h4--2---2-4-4-0-0-0-0-||-0-4-0----0--0----0--0--0--0--0--0----0--0----0-4---0-0---------||----------------------------------------------------------------||----------------------------------------------------------------|
|---------------------------------||---------------------------------||---2--------2--------------------||------2--2-----2--2h4p2--2--0----||-4----4--4-----------------------||---------------------------------|
He starts strummming the chords harder here D And now I am going back again A Back to the pen to see my friends D5 When we all file of that county van A Don't ask me where I been D I've been a bar on the inside A Waitin' for my ride on the outside D5 She broke my heart, in the trailer park E5 So I jacked the keys to her fuckin' car A crashed that piece of shit an' then stepped away ------------------------------------ LYRICS Bartender I really did it this time Broke my parole to have a good time When I got home it was 6 AM The door was locked so I kicked it in She was trippin' on the bills I think she was high on some pills She threw my shit out into the yard Then she called me a bum and slapped me real hard An' in my drunken stupor I did what I shoulda never done Now I'm sittin' here talking to you Drunk and on the run I'm sittin' at a bar on the inside Waitin' for my ride on the outside She broke my heart, in the trailer park So I jacked the keys to her fuckin' car Crashed that piece of shit an' then stepped away You know Mo I'll probably get ten years So just get me beers till they get here Yea I know the sun is comin' up And ya'll are probably get ready for closin' up But im tryin' to dry my soul I m tired o' this life on the dirt road Everything that I love is gone And I'm tired o'hangin on she got me sittin' at a bar on the inside Waitin' for my ride on the outside She stole my heart, in the trailer park So I jacked the keys to her fuckin' car crashed that piece of shit an' then stepped away Yes it was meant to be Romance is misery So much for memories And now I am headed to the penitentiary See me on TV The next cop series I am a danger I guess I shoulda did something about my anger But I never learn Real things I don't concern I pour kerosene on everything I love And watch it burn I know it's my fault But I wasn't happy it was over She threw a fit So I crashed that piece of shit over And now I am going back again Back to the pen to see my friends When we all file of that county van Don't ask me where I been I been at bar on the inside Waitin' for my ride on the outside She broke my heart, in the trailer park So I jacked the keys to her fuckin' car I crashed that piece of shit an' then stepped away ------------------- | h hammer-on | p pull-off ================================================================
Tap to rate this tab
 
# A B C D E F G H I J K L M N O P Q R S T U V W X Y Z