Relient K – More Than Useless tab

Artist: Relient K
Song: More Than Useless
Album: MMHMM
Tabber: aceguitarock
Tuning: Half step down (Eb, Ab, Db, Gb, Bb, Eb)

Key: 
x = Dead Note
* = Palm Mute

Intro:Gtr. 1:|-000-000-000-000-0000-||-444-555-000-222-4444-||----------------------| |----------------------| x6|----------------------||----------------------|
Gtr. 2: (Join in on Gtr. 1's 3rd time)|----------------------------------||----------------------------------||-66666-6--2-22-2------------------||-66666-6--2-22-2-22-22-2--2-22222-| x2|-44444-4--0-00-0-22-22-2--2-22222-||-----------------00-00-0--0-00000-|
Gtr. 3: (Join in on Gtr. 2's 2nd time)|---------------------------------------------||---------------------------------------------||1111--13-13-1111--14-14-1311-99-99-9-9-99999-||-x-x---x--x--x-x---x--x--x-x-xx-xx-x-x-xxxxx-||-9-9--11-11--9-9--12-12-11-9-77-77-7-7-77777-||---------------------------------------------|
Verse 1:|------------------------------------||------------------------------------||------------------------------------||-9999999999999999-66666666----------| x2|-7777777777777777-44444444-77777777-||---------------------------55555555-|PM**************** ******** ********
Gtr. 1:|---------------------------------------||---------------------------------------||-------------------66-----66-----------||-22-----2222-----2266-----6677--799--9-| x2|-22-----2222-----2244-----4477--799--9-||-00-----0000-----00---------55--577--7-|
Gtr. 2:|----000000---000000---000000-----------||----555555---555555---555555-----------||---------------------------------------||---------------------------------------| x2|---------------------------------------||---------------------------------------|
Pre-Chorus:|-------------------------------------||-------------------------------------||-------------------------------------||-66666666-44444444-22222222-22222222-| x2|-77777777-66666666-44444444-00000000-||-------------------------------------|PM******** ******** ******** ********
|-----------------||-----------------||-5-5-5-5-6-6-4-4-||-6-6-6-6-6-6-4-4-||-3-3-3-3-4-4-2-2-||-----------------|
Chorus:|----------------------------------------------------------------------0-||----------------------------------------------------------------------1-||------------4-2-------22-222-222-4-2-------66-666-666-4-2-----22-222--2-||-22-222-222-----4-666-22-222-222-----4-666-66-666-666-----4-6-22-222--2-||-22-222-222-----------00-000-000-----------44-444-444---------00-000--0-||-00-000-000-------------------------------------------------------------|
Interlude:Gtr. 1:|--------------------------------------------------||--------------------------------------------------||-66666-6--2-22-2------------------66666-6--2-22-2-||-66666-6--2-22-2-22-22-2--2-22222-66666-6--2-22-2-||-44444-4--0-00-0-22-22-2--2-22222-44444-4--0-00-0-||-----------------00-00-0--0-00000-----------------|
Gtr. 2:|-12--16--14------17--16--14--12-11-12--12--16--14----||-----------12-------------------------------------12-||-----------------------------------------------------||-----------------------------------------------------||-----------------------------------------------------||-----------------------------------------------------|
Verse 2:|------------------------------------||------------------------------------||------------------------------------||-9999999999999999-66666666----------| x2|-7777777777777777-44444444-77777777-||---------------------------55555555-|PM**************** ******** ********
Gtr. 1:|---------------------------------------||---------------------------------------||-------------------66-----66-----------||-22-----2222-----2266-----6677--799--9-| x2|-22-----2222-----2244-----4477--799--9-||-00-----0000-----00---------55--577--7-|
Gtr. 2:|----000000---000000---000000-----------||----555555---555555---555555-----------||---------------------------------------||---------------------------------------| x2|---------------------------------------||---------------------------------------|
Pre-Chorus:Gtr. 1:|------0---------0---------0---------0------||---5----5----4----4----2----2----0----0----||-4-------4-4-------4-4-------4-2-------2---||-------------------------------------------||-------------------------------------------||-------------------------------------------|
Gtr. 2:|-----------------------------------12---||--12--------12--------12--------12---12-||-9----8-9--8----8-9-------8-9-----------||--------------------11--------7---------||----------------------------------------||----------------------------------------|
|-----------------||-----------------||-5-5-5-5-6-6-4-4-||-6-6-6-6-6-6-4-4-||-3-3-3-3-4-4-2-2-||-----------------|
Chorus:|--------------------------------------------------------------||--------------------------------------------------------------||------------4-2-------22-222-222-4-2-------66-666-666-4-2-----||-22-222-222-----4-666-22-222-222-----4-666-66-666-666-----4-6-||-22-222-222-----------00-000-000-----------44-444-444---------||-00-000-000---------------------------------------------------|
|------------------------------------------------------------------||------------------------------------------------------------------||-22-222-222-222-2----------------55-555-555-555-566-666-666-666-6-||-22-222-222-222-222-222-222-222-266-666-666-666-666-666-666-666-6-||-00-000-000-000-022-222-222-222-233-333-333-333-344-444-444-444-4-||-----------------00-000-000-000-0---------------------------------|
|-----------------||-----------------||-22-222-22222222-||-22-222-22222222-||-00-000-00000000-||-----------------|
Bridge:(Clean)|-0000000000000000-||-4445550002224444-||-xxxxxxxxxxxxxxxx-||-2222222222222222-| x6|------------------||------------------|
Gtr. 1:|-------------------------------------------------------------------------||-------------------------------------------------------------------------||-22222222-66666666-22222222----------22222222-66666666----------22222222-||-22222222-66666666-22222222-22222222-22222222-66666666-22222222-22222222-||-00000000-44444444-00000000-22222222-00000000-44444444-22222222-00000000-||----------------------------00000000-------------------00000000----------|
Gtr. 2:|----------------------|-----------------||----------------------|-----------------||-1313131313131313-----|1111111111111111-||--x-x-x-x-x-x-x-x--x56|-x-x-x-x-x-x-x-x-||-1111111111111111-----|-9-9-9-9-9-9-9-9-||----------------------|-----------------|
Gtr. 1:|------------------------------||------------------------------||---989----989----989--119-8-9-||---xxx----xxx----xxx---xx-x-x-||---767----767----767---97-6-7-||------------------------------|
Gtr. 2:|------------------------------||------------------------------||-22----244----466----644------||-22----244----466----644------||-00----022----244----422------||------------------------------|
|---------------------------------------||---------------------------------------||-22222222-44444444-66666666-55-6-4-----||-22222222-44444444-66666666-66-6-4-----||-00000000-22222222-44444444-33-4-2-----||---------------------------------------|
Chorus:|--------------------------------------------------------------||--------------------------------------------------------------||------------4-2-------22-222-222-4-2-------66-666-666-4-2-----||-22-222-222-----4-666-22-222-222-----4-666-66-666-666-----4-6-||-22-222-222-----------00-000-000-----------44-444-444---------||-00-000-000---------------------------------------------------|
|------------------------------------------------------------------||------------------------------------------------------------------||-22-222-222-222-2----------------55-555-555-555-56666666666666666-||-22-222-222-222-222-222-222-222-266-666-666-666-66666666666666666-||-00-000-000-000-022-222-222-222-233-333-333-333-34444444444444444-||-----------------00-000-000-000-0---------------------------------|
|--------------------||--------------------||-2222222222222222---||-2222222222222222-2-||-0000000000000000-2-||------------------0-|
Outro:Gtr. 1:|-000-000-000-000-0000-||-444-555-000-222-4444-||----------------------||----------------------| x7|----------------------||----------------------|
Gtr. 2:|---------------------------------||---------------------------------||-2-------------------------------||-2---------------2---------------| x4|-0---------------2---------------||-----------------0---------------|
Lyrics: I feel like I would like To be somewhere else Doing something that matters And I'll admit here While I sit here My mind wastes away And my doubts start to gather What's the purpose? It feels worthless So unwanted like I've lost all my value I can't find it Not in the least bit And I'm just scared So scared that I'll fail You Sometimes I think that I'm not any good at all And sometimes I wonder why Why I'm even here at all But then You assure me I'm a little more than useless And when I think that I can't do this You promise me that I'll get through this And do something right Do something right for once So I say if I can't Do something significant I'll opt to leave most opportunities wasted And nothing trivial That life can give you will Measure up to what might have replaced it Too late, look My date book Is packed full of days that were empty and now gone And I bet That regret Will prove to get me to improve in the long run Sometimes I think that I'm not any good at all And sometimes I wonder why Why I'm even here at all But then You assure me I'm a little more than useless And when I think that I can't do this You promise me that I'll get through this And do something right Do something right for once I'm a little more than useless And I never knew I knew this Was gonna be the day Gonna be the day that I would do something right Do something right for once I noticed I know this Weak is a symbol of how I use my time Resent it I spent it Convincing myself The world's doing just fine Without me (without me) Doing anything of any consequence Without me (without me) Showing any sign of ever making sense Of my time It's my life And my right to use it like I should Like He would For the good Of everything that I would ever know I'm a little more than useless And when I think that I can't do this You promise me that I'll get through this And do something right Do something right for once I'm a little more than useless And I never knew I knew this Was gonna be the day Gonna be the day that I would do something right Do something right for once
Please rate this tab:
x1.0